ISO-10303-21;
HEADER;
FILE_DESCRIPTION (( 'STEP AP203' ),
    '1' );
FILE_NAME ('A_0221-014.STEP',
    '2021-12-21T07:36:58',
    ( '' ),
    ( '' ),
    'SwSTEP 2.0',
    'SolidWorks 2019',
    '' );
FILE_SCHEMA (( 'CONFIG_CONTROL_DESIGN' ));
ENDSEC;

DATA;
#1 = DIRECTION ( 'NONE',  ( 0.5150380749100544886, 0.000000000000000000, -0.8571673007021121116 ) ) ;
#2 = EDGE_LOOP ( 'NONE', ( #276, #152, #223, #62, #17 ) ) ;
#3 = ORIENTED_EDGE ( 'NONE', *, *, #33, .T. ) ;
#4 = APPROVAL_ROLE ( '' ) ;
#5 = MANIFOLD_SOLID_BREP ( 'O14.25 (14.3) prùmìr díry1', #7 ) ;
#6 = ORIENTED_EDGE ( 'NONE', *, *, #15, .F. ) ;
#7 = CLOSED_SHELL ( 'NONE', ( #150, #262, #164, #55, #160, #217, #108 ) ) ;
#8 = SECURITY_CLASSIFICATION_LEVEL ( 'unclassified' ) ;
#9 = VERTEX_POINT ( 'NONE', #46 ) ;
#10 = MECHANICAL_CONTEXT ( 'NONE', #45, 'mechanical' ) ;
#11 = ORIENTED_EDGE ( 'NONE', *, *, #139, .F. ) ;
#12 = AXIS2_PLACEMENT_3D ( 'NONE', #189, #122, #212 ) ;
#13 = CARTESIAN_POINT ( 'NONE',  ( 4.176840463417511927E-17, 5.115154304073403179E-33, 0.000000000000000000 ) ) ;
#14 = DIRECTION ( 'NONE',  ( 1.000000000000000000, -0.000000000000000000, -0.000000000000000000 ) ) ;
#15 = EDGE_CURVE ( 'NONE', #86, #82, #138, .T. ) ;
#16 = VECTOR ( 'NONE', #287, 1000.000000000000000 ) ;
#17 = ORIENTED_EDGE ( 'NONE', *, *, #51, .F. ) ;
#18 = DIRECTION ( 'NONE',  ( -1.000000000000000000, 0.000000000000000000, 0.000000000000000000 ) ) ;
#19 = CARTESIAN_POINT ( 'NONE',  ( -6.699999999999999289, -8.205133554287266562E-16, 0.000000000000000000 ) ) ;
#20 = CIRCLE ( 'NONE', #190, 10.00000000000000000 ) ;
#21 = PRODUCT_DEFINITION_SHAPE ( 'NONE', 'NONE',  #121 ) ;
#22 = DIRECTION ( 'NONE',  ( 0.000000000000000000, -1.509903313490212895E-14, -1.000000000000000000 ) ) ;
#23 = APPROVAL_PERSON_ORGANIZATION ( #60, #206, #174 ) ;
#24 = CARTESIAN_POINT ( 'NONE',  ( -12.50000000000000000, 0.000000000000000000, -7.149999999999996803 ) ) ;
#25 = DIRECTION ( 'NONE',  ( 0.000000000000000000, 0.000000000000000000, -1.000000000000000000 ) ) ;
#26 = CIRCLE ( 'NONE', #186, 0.1622160136300014877 ) ;
#27 = CC_DESIGN_PERSON_AND_ORGANIZATION_ASSIGNMENT ( #258, #101, ( #153 ) ) ;
#28 = DIRECTION ( 'NONE',  ( 1.000000000000000000, -0.000000000000000000, -0.000000000000000000 ) ) ;
#29 = AXIS2_PLACEMENT_3D ( 'NONE', #137, #227, #229 ) ;
#30 = APPLICATION_PROTOCOL_DEFINITION ( 'international standard', 'config_control_design', 1994, #45 ) ;
#31 = PERSON_AND_ORGANIZATION ( #123, #131 ) ;
#32 = APPROVAL_DATE_TIME ( #53, #206 ) ;
#33 = EDGE_CURVE ( 'NONE', #63, #195, #165, .T. ) ;
#34 = ORIENTED_EDGE ( 'NONE', *, *, #177, .T. ) ;
#35 = DATE_AND_TIME ( #196, #168 ) ;
#36 = COORDINATED_UNIVERSAL_TIME_OFFSET ( 1, 0, .AHEAD. ) ;
#37 = EDGE_CURVE ( 'NONE', #219, #66, #111, .T. ) ;
#38 = AXIS2_PLACEMENT_3D ( 'NONE', #19, #203, #225 ) ;
#39 = ORIENTED_EDGE ( 'NONE', *, *, #214, .F. ) ;
#40 = LOCAL_TIME ( 8, 36, 58.00000000000000000, #275 ) ;
#41 = ORIENTED_EDGE ( 'NONE', *, *, #214, .T. ) ;
#42 = ORIENTED_EDGE ( 'NONE', *, *, #83, .F. ) ;
#43 = AXIS2_PLACEMENT_3D ( 'NONE', #70, #181, #159 ) ;
#44 = FACE_BOUND ( 'NONE', #173, .T. ) ;
#45 = APPLICATION_CONTEXT ( 'configuration controlled 3d designs of mechanical parts and assemblies' ) ;
#46 = CARTESIAN_POINT ( 'NONE',  ( -16.69868421168115091, 0.1622160136300006827, 0.000000000000000000 ) ) ;
#47 = EDGE_CURVE ( 'NONE', #195, #259, #240, .T. ) ;
#48 = DIRECTION ( 'NONE',  ( -1.224646799147353207E-16, 1.000000000000000000, 0.000000000000000000 ) ) ;
#49 = DIRECTION ( 'NONE',  ( -1.224646799147353207E-16, 1.000000000000000000, 0.000000000000000000 ) ) ;
#50 = LINE ( 'NONE', #253, #157 ) ;
#51 = EDGE_CURVE ( 'NONE', #259, #241, #205, .T. ) ;
#52 = DIRECTION ( 'NONE',  ( 1.000000000000000000, -0.000000000000000000, -0.000000000000000000 ) ) ;
#53 = DATE_AND_TIME ( #216, #209 ) ;
#54 = AXIS2_PLACEMENT_3D ( 'NONE', #97, #52, #73 ) ;
#55 = ADVANCED_FACE ( 'NONE', ( #44, #247 ), #285, .T. ) ;
#56 = CALENDAR_DATE ( 2021, 21, 12 ) ;
#57 = APPROVAL_DATE_TIME ( #279, #74 ) ;
#58 = AXIS2_PLACEMENT_3D ( 'NONE', #230, #161, #163 ) ;
#59 = ORIENTED_EDGE ( 'NONE', *, *, #177, .F. ) ;
#60 = PERSON_AND_ORGANIZATION ( #123, #131 ) ;
#61 = CC_DESIGN_PERSON_AND_ORGANIZATION_ASSIGNMENT ( #31, #194, ( #140 ) ) ;
#62 = ORIENTED_EDGE ( 'NONE', *, *, #83, .T. ) ;
#63 = VERTEX_POINT ( 'NONE', #245 ) ;
#64 = CYLINDRICAL_SURFACE ( 'NONE', #231, 7.149999999999997691 ) ;
#65 = APPROVAL_PERSON_ORGANIZATION ( #79, #112, #99 ) ;
#66 = VERTEX_POINT ( 'NONE', #283 ) ;
#67 = UNCERTAINTY_MEASURE_WITH_UNIT (LENGTH_MEASURE( 1.000000000000000082E-05 ), #251, 'distance_accuracy_value', 'NONE');
#68 = DIRECTION ( 'NONE',  ( 1.000000000000000000, -0.000000000000000000, -0.000000000000000000 ) ) ;
#69 = VECTOR ( 'NONE', #1, 1000.000000000000000 ) ;
#70 = CARTESIAN_POINT ( 'NONE',  ( 0.000000000000000000, 0.000000000000000000, 0.000000000000000000 ) ) ;
#71 = LOCAL_TIME ( 8, 36, 58.00000000000000000, #128 ) ;
#72 = FACE_OUTER_BOUND ( 'NONE', #2, .T. ) ;
#73 = DIRECTION ( 'NONE',  ( 0.000000000000000000, 0.000000000000000000, -1.000000000000000000 ) ) ;
#74 = APPROVAL ( #218, 'NEURÈENÝ' ) ;
#75 = DIRECTION ( 'NONE',  ( 1.000000000000000000, 1.224646799147353207E-16, -0.000000000000000000 ) ) ;
#76 = CARTESIAN_POINT ( 'NONE',  ( -1.301042606982605321E-15, 7.423610981186987701, 0.000000000000000000 ) ) ;
#77 = AXIS2_PLACEMENT_3D ( 'NONE', #13, #242, #48 ) ;
#78 = LINE ( 'NONE', #24, #69 ) ;
#79 = PERSON_AND_ORGANIZATION ( #123, #131 ) ;
#80 = ORIENTED_EDGE ( 'NONE', *, *, #154, .T. ) ;
#81 = PERSON_AND_ORGANIZATION ( #123, #131 ) ;
#82 = VERTEX_POINT ( 'NONE', #266 ) ;
#83 = EDGE_CURVE ( 'NONE', #9, #241, #20, .T. ) ;
#84 = CIRCLE ( 'NONE', #144, 0.1622160136300014877 ) ;
#85 = PERSON_AND_ORGANIZATION_ROLE ( 'creator' ) ;
#86 = VERTEX_POINT ( 'NONE', #243 ) ;
#87 = APPLICATION_CONTEXT ( 'configuration controlled 3d designs of mechanical parts and assemblies' ) ;
#88 = ORIENTED_EDGE ( 'NONE', *, *, #154, .F. ) ;
#89 = ORIENTED_EDGE ( 'NONE', *, *, #289, .F. ) ;
#90 = DIRECTION ( 'NONE',  ( -1.224646799147353207E-16, 1.000000000000000000, 0.000000000000000000 ) ) ;
#91 = PRODUCT_RELATED_PRODUCT_CATEGORY ( 'detail', '', ( #188 ) ) ;
#92 = CARTESIAN_POINT ( 'NONE',  ( -16.69868421168115091, -8.205133554287266562E-16, 0.000000000000000000 ) ) ;
#93 = CARTESIAN_POINT ( 'NONE',  ( -12.50000000000000000, 0.000000000000000000, -7.149999999999996803 ) ) ;
#94 = CARTESIAN_POINT ( 'NONE',  ( -12.50000000000000000, 0.000000000000000000, 0.000000000000000000 ) ) ;
#95 = CARTESIAN_POINT ( 'NONE',  ( -16.69868421168115091, -8.205133554287266562E-16, 0.000000000000000000 ) ) ;
#96 = CIRCLE ( 'NONE', #54, 7.149999999999996803 ) ;
#97 = CARTESIAN_POINT ( 'NONE',  ( -12.50000000000000000, 0.000000000000000000, 0.000000000000000000 ) ) ;
#98 = EDGE_CURVE ( 'NONE', #195, #219, #26, .T. ) ;
#99 = APPROVAL_ROLE ( '' ) ;
#100 = ORIENTED_EDGE ( 'NONE', *, *, #98, .T. ) ;
#101 = PERSON_AND_ORGANIZATION_ROLE ( 'design_supplier' ) ;
#102 = EDGE_LOOP ( 'NONE', ( #100, #179, #239, #151, #3 ) ) ;
#103 = SHAPE_DEFINITION_REPRESENTATION ( #21, #282 ) ;
#104 = DESIGN_CONTEXT ( 'detailed design', #87, 'design' ) ;
#105 = EDGE_LOOP ( 'NONE', ( #34, #143 ) ) ;
#106 = APPROVAL_DATE_TIME ( #142, #112 ) ;
#107 = CC_DESIGN_SECURITY_CLASSIFICATION ( #140, ( #153 ) ) ;
#108 = ADVANCED_FACE ( 'NONE', ( #202 ), #64, .F. ) ;
#109 = ORIENTED_EDGE ( 'NONE', *, *, #248, .T. ) ;
#110 = DIRECTION ( 'NONE',  ( 0.000000000000000000, 0.000000000000000000, -1.000000000000000000 ) ) ;
#111 = LINE ( 'NONE', #261, #127 ) ;
#112 = APPROVAL ( #278, 'NEURÈENÝ' ) ;
#113 = CARTESIAN_POINT ( 'NONE',  ( -16.69868421168115091, -8.205133554287266562E-16, 0.000000000000000000 ) ) ;
#114 = LINE ( 'NONE', #207, #16 ) ;
#115 = DIRECTION ( 'NONE',  ( 1.000000000000000000, -0.000000000000000000, -0.000000000000000000 ) ) ;
#116 = CC_DESIGN_APPROVAL ( #112, ( #121 ) ) ;
#117 = CARTESIAN_POINT ( 'NONE',  ( -12.50000000000000000, 0.000000000000000000, 0.000000000000000000 ) ) ;
#118 = DIRECTION ( 'NONE',  ( -8.673617379884035472E-17, 1.000000000000000000, 0.000000000000000000 ) ) ;
#119 = CIRCLE ( 'NONE', #197, 0.1622160136300014877 ) ;
#120 = FACE_OUTER_BOUND ( 'NONE', #102, .T. ) ;
#121 = PRODUCT_DEFINITION ( 'NEZNÁMÝ', '', #153, #104 ) ;
#122 = DIRECTION ( 'NONE',  ( 0.000000000000000000, 0.000000000000000000, 1.000000000000000000 ) ) ;
#123 = PERSON ( 'NEURÈENÝ', 'NEURÈENÝ', 'NEURÈENÝ', ('NEURÈENÝ'), ('NEURÈENÝ'), ('NEURÈENÝ') ) ;
#124 = APPROVAL_STATUS ( 'not_yet_approved' ) ;
#125 = COORDINATED_UNIVERSAL_TIME_OFFSET ( 1, 0, .AHEAD. ) ;
#126 = ORIENTED_EDGE ( 'NONE', *, *, #139, .T. ) ;
#127 = VECTOR ( 'NONE', #132, 1000.000000000000000 ) ;
#128 = COORDINATED_UNIVERSAL_TIME_OFFSET ( 1, 0, .AHEAD. ) ;
#129 = ORIENTED_EDGE ( 'NONE', *, *, #182, .T. ) ;
#130 = ORIENTED_EDGE ( 'NONE', *, *, #252, .T. ) ;
#131 = ORGANIZATION ( 'NEURÈENÝ', 'NEURÈENÝ', '' ) ;
#132 = DIRECTION ( 'NONE',  ( 0.5150380749100544886, 1.049727191138618449E-16, 0.8571673007021121116 ) ) ;
#133 = CONICAL_SURFACE ( 'NONE', #291, 7.149999999999996803, 1.029744258676654090 ) ;
#134 = ORIENTED_EDGE ( 'NONE', *, *, #289, .T. ) ;
#135 = DIRECTION ( 'NONE',  ( 0.000000000000000000, 0.000000000000000000, -1.000000000000000000 ) ) ;
#136 = CARTESIAN_POINT ( 'NONE',  ( 9.091301426225787466E-16, -7.423610981186986812, 9.091301426225787466E-16 ) ) ;
#137 = CARTESIAN_POINT ( 'NONE',  ( -12.50000000000000000, 0.000000000000000000, 0.000000000000000000 ) ) ;
#138 = CIRCLE ( 'NONE', #271, 7.149999999999998579 ) ;
#139 = EDGE_CURVE ( 'NONE', #219, #9, #84, .T. ) ;
#140 = SECURITY_CLASSIFICATION ( '', '', #8 ) ;
#141 = DATE_TIME_ROLE ( 'creation_date' ) ;
#142 = DATE_AND_TIME ( #256, #183 ) ;
#143 = ORIENTED_EDGE ( 'NONE', *, *, #51, .T. ) ;
#144 = AXIS2_PLACEMENT_3D ( 'NONE', #92, #284, #178 ) ;
#145 = PERSON_AND_ORGANIZATION_ROLE ( 'creator' ) ;
#146 = ORIENTED_EDGE ( 'NONE', *, *, #15, .T. ) ;
#147 = ORIENTED_EDGE ( 'NONE', *, *, #47, .T. ) ;
#148 = COORDINATED_UNIVERSAL_TIME_OFFSET ( 1, 0, .AHEAD. ) ;
#149 = AXIS2_PLACEMENT_3D ( 'NONE', #200, #204, #90 ) ;
#150 = ADVANCED_FACE ( 'NONE', ( #180 ), #265, .F. ) ;
#151 = ORIENTED_EDGE ( 'NONE', *, *, #248, .F. ) ;
#152 = ORIENTED_EDGE ( 'NONE', *, *, #33, .F. ) ;
#153 = PRODUCT_DEFINITION_FORMATION_WITH_SPECIFIED_SOURCE ( 'LIBOVOLNÝ', '', #188, .NOT_KNOWN. ) ;
#154 = EDGE_CURVE ( 'NONE', #66, #82, #114, .T. ) ;
#155 = DIRECTION ( 'NONE',  ( 0.000000000000000000, 0.000000000000000000, -1.000000000000000000 ) ) ;
#156 = VERTEX_POINT ( 'NONE', #93 ) ;
#157 = VECTOR ( 'NONE', #115, 1000.000000000000000 ) ;
#158 = DIRECTION ( 'NONE',  ( -1.000000000000000000, 0.000000000000000000, 0.000000000000000000 ) ) ;
#159 = DIRECTION ( 'NONE',  ( 0.000000000000000000, 0.000000000000000000, -1.000000000000000000 ) ) ;
#160 = ADVANCED_FACE ( 'NONE', ( #72 ), #208, .T. ) ;
#161 = DIRECTION ( 'NONE',  ( 0.000000000000000000, 0.000000000000000000, 1.000000000000000000 ) ) ;
#162 = DIRECTION ( 'NONE',  ( -1.000000000000000000, 0.000000000000000000, 0.000000000000000000 ) ) ;
#163 = DIRECTION ( 'NONE',  ( -8.673617379884035472E-17, 1.000000000000000000, 0.000000000000000000 ) ) ;
#164 = ADVANCED_FACE ( 'NONE', ( #184 ), #166, .T. ) ;
#165 = CIRCLE ( 'NONE', #264, 0.1622160136300014877 ) ;
#166 = SPHERICAL_SURFACE ( 'NONE', #244, 10.00000000000000000 ) ;
#167 = CARTESIAN_POINT ( 'NONE',  ( -1.224646799147352468E-16, 0.000000000000000000, 0.000000000000000000 ) ) ;
#168 = LOCAL_TIME ( 8, 36, 58.00000000000000000, #36 ) ;
#169 = DATE_AND_TIME ( #170, #40 ) ;
#170 = CALENDAR_DATE ( 2021, 21, 12 ) ;
#171 = AXIS2_PLACEMENT_3D ( 'NONE', #249, #75, #49 ) ;
#172 = PERSON_AND_ORGANIZATION ( #123, #131 ) ;
#173 = EDGE_LOOP ( 'NONE', ( #6, #198 ) ) ;
#174 = APPROVAL_ROLE ( '' ) ;
#175 = EDGE_LOOP ( 'NONE', ( #88, #89, #41, #146 ) ) ;
#176 = CARTESIAN_POINT ( 'NONE',  ( -6.699999999999999289, -8.205133554287266562E-16, 0.000000000000000000 ) ) ;
#177 = EDGE_CURVE ( 'NONE', #241, #259, #236, .T. ) ;
#178 = DIRECTION ( 'NONE',  ( 0.000000000000000000, 0.000000000000000000, -1.000000000000000000 ) ) ;
#179 = ORIENTED_EDGE ( 'NONE', *, *, #37, .T. ) ;
#180 = FACE_OUTER_BOUND ( 'NONE', #199, .T. ) ;
#181 = DIRECTION ( 'NONE',  ( 1.000000000000000000, -0.000000000000000000, -0.000000000000000000 ) ) ;
#182 = EDGE_CURVE ( 'NONE', #9, #63, #119, .T. ) ;
#183 = LOCAL_TIME ( 8, 36, 58.00000000000000000, #148 ) ;
#184 = FACE_OUTER_BOUND ( 'NONE', #215, .T. ) ;
#185 = DIRECTION ( 'NONE',  ( 1.000000000000000000, -0.000000000000000000, -0.000000000000000000 ) ) ;
#186 = AXIS2_PLACEMENT_3D ( 'NONE', #113, #158, #260 ) ;
#187 =( NAMED_UNIT ( * ) PLANE_ANGLE_UNIT ( ) SI_UNIT ( $, .RADIAN. ) );
#188 = PRODUCT ( 'A_0221-014', 'A_0221-014', '', ( #10 ) ) ;
#189 = CARTESIAN_POINT ( 'NONE',  ( 0.000000000000000000, 0.000000000000000000, 0.000000000000000000 ) ) ;
#190 = AXIS2_PLACEMENT_3D ( 'NONE', #176, #222, #224 ) ;
#191 = ORIENTED_EDGE ( 'NONE', *, *, #37, .F. ) ;
#192 = CC_DESIGN_PERSON_AND_ORGANIZATION_ASSIGNMENT ( #172, #145, ( #153 ) ) ;
#193 = CIRCLE ( 'NONE', #254, 7.149999999999996803 ) ;
#194 = PERSON_AND_ORGANIZATION_ROLE ( 'classification_officer' ) ;
#195 = VERTEX_POINT ( 'NONE', #272 ) ;
#196 = CALENDAR_DATE ( 2021, 21, 12 ) ;
#197 = AXIS2_PLACEMENT_3D ( 'NONE', #95, #162, #22 ) ;
#198 = ORIENTED_EDGE ( 'NONE', *, *, #252, .F. ) ;
#199 = EDGE_LOOP ( 'NONE', ( #273, #80, #130, #39 ) ) ;
#200 = CARTESIAN_POINT ( 'NONE',  ( -8.882459403054908511E-16, 7.423610981186985924, 0.000000000000000000 ) ) ;
#201 = CC_DESIGN_PERSON_AND_ORGANIZATION_ASSIGNMENT ( #81, #213, ( #188 ) ) ;
#202 = FACE_OUTER_BOUND ( 'NONE', #175, .T. ) ;
#203 = DIRECTION ( 'NONE',  ( -1.499759782661857608E-32, 1.224646799147353207E-16, 1.000000000000000000 ) ) ;
#204 = DIRECTION ( 'NONE',  ( 1.000000000000000000, 1.224646799147353207E-16, -0.000000000000000000 ) ) ;
#205 = CIRCLE ( 'NONE', #77, 7.423610981186987701 ) ;
#206 = APPROVAL ( #124, 'NEURÈENÝ' ) ;
#207 = CARTESIAN_POINT ( 'NONE',  ( 0.000000000000000000, 8.756224613903571573E-16, 7.149999999999997691 ) ) ;
#208 = SPHERICAL_SURFACE ( 'NONE', #58, 10.00000000000000000 ) ;
#209 = LOCAL_TIME ( 8, 36, 58.00000000000000000, #125 ) ;
#210 = DIRECTION ( 'NONE',  ( 0.000000000000000000, 0.000000000000000000, 1.000000000000000000 ) ) ;
#211 = DIRECTION ( 'NONE',  ( 0.000000000000000000, 0.000000000000000000, -1.000000000000000000 ) ) ;
#212 = DIRECTION ( 'NONE',  ( 1.000000000000000000, 0.000000000000000000, 0.000000000000000000 ) ) ;
#213 = PERSON_AND_ORGANIZATION_ROLE ( 'design_owner' ) ;
#214 = EDGE_CURVE ( 'NONE', #156, #86, #50, .T. ) ;
#215 = EDGE_LOOP ( 'NONE', ( #235, #147, #59, #42, #11 ) ) ;
#216 = CALENDAR_DATE ( 2021, 21, 12 ) ;
#217 = ADVANCED_FACE ( 'NONE', ( #288 ), #277, .F. ) ;
#218 = APPROVAL_STATUS ( 'not_yet_approved' ) ;
#219 = VERTEX_POINT ( 'NONE', #226 ) ;
#220 = APPROVAL_PERSON_ORGANIZATION ( #255, #74, #4 ) ;
#221 = CARTESIAN_POINT ( 'NONE',  ( -16.69868421168115091, -8.205133554287266562E-16, 0.000000000000000000 ) ) ;
#222 = DIRECTION ( 'NONE',  ( -0.000000000000000000, 0.000000000000000000, -1.000000000000000000 ) ) ;
#223 = ORIENTED_EDGE ( 'NONE', *, *, #182, .F. ) ;
#224 = DIRECTION ( 'NONE',  ( -1.000000000000000000, 0.000000000000000000, 0.000000000000000000 ) ) ;
#225 = DIRECTION ( 'NONE',  ( 0.000000000000000000, -1.000000000000000000, 1.224646799147353207E-16 ) ) ;
#226 = CARTESIAN_POINT ( 'NONE',  ( -16.69868421168115091, 4.477440967883004455E-16, 0.1622160136300015154 ) ) ;
#227 = DIRECTION ( 'NONE',  ( 1.000000000000000000, -0.000000000000000000, -0.000000000000000000 ) ) ;
#228 =( GEOMETRIC_REPRESENTATION_CONTEXT ( 3 ) GLOBAL_UNCERTAINTY_ASSIGNED_CONTEXT ( ( #67 ) ) GLOBAL_UNIT_ASSIGNED_CONTEXT ( ( #251, #187, #269 ) ) REPRESENTATION_CONTEXT ( 'NONE', 'WORKASPACE' ) );
#229 = DIRECTION ( 'NONE',  ( 0.000000000000000000, 0.000000000000000000, -1.000000000000000000 ) ) ;
#230 = CARTESIAN_POINT ( 'NONE',  ( -6.699999999999999289, -8.205133554287266562E-16, 0.000000000000000000 ) ) ;
#231 = AXIS2_PLACEMENT_3D ( 'NONE', #263, #68, #135 ) ;
#232 = CC_DESIGN_APPROVAL ( #206, ( #140 ) ) ;
#233 = CC_DESIGN_PERSON_AND_ORGANIZATION_ASSIGNMENT ( #234, #85, ( #121 ) ) ;
#234 = PERSON_AND_ORGANIZATION ( #123, #131 ) ;
#235 = ORIENTED_EDGE ( 'NONE', *, *, #98, .F. ) ;
#236 = CIRCLE ( 'NONE', #171, 7.423610981186987701 ) ;
#237 = DATE_TIME_ROLE ( 'classification_date' ) ;
#238 = APPLICATION_PROTOCOL_DEFINITION ( 'international standard', 'config_control_design', 1994, #87 ) ;
#239 = ORIENTED_EDGE ( 'NONE', *, *, #280, .T. ) ;
#240 = CIRCLE ( 'NONE', #38, 10.00000000000000000 ) ;
#241 = VERTEX_POINT ( 'NONE', #76 ) ;
#242 = DIRECTION ( 'NONE',  ( 1.000000000000000000, 1.224646799147353207E-16, -0.000000000000000000 ) ) ;
#243 = CARTESIAN_POINT ( 'NONE',  ( -1.224646799147352468E-16, 0.000000000000000000, -7.149999999999998579 ) ) ;
#244 = AXIS2_PLACEMENT_3D ( 'NONE', #290, #210, #118 ) ;
#245 = CARTESIAN_POINT ( 'NONE',  ( -16.69868421168115091, 3.851859888774471706E-31, -0.1622160136300015154 ) ) ;
#246 = CC_DESIGN_DATE_AND_TIME_ASSIGNMENT ( #35, #141, ( #121 ) ) ;
#247 = FACE_OUTER_BOUND ( 'NONE', #105, .T. ) ;
#248 = EDGE_CURVE ( 'NONE', #63, #156, #78, .T. ) ;
#249 = CARTESIAN_POINT ( 'NONE',  ( 4.176840463417511927E-17, 5.115154304073403179E-33, 0.000000000000000000 ) ) ;
#250 = DIRECTION ( 'NONE',  ( 1.000000000000000000, -0.000000000000000000, -0.000000000000000000 ) ) ;
#251 =( LENGTH_UNIT ( ) NAMED_UNIT ( * ) SI_UNIT ( .MILLI., .METRE. ) );
#252 = EDGE_CURVE ( 'NONE', #82, #86, #268, .T. ) ;
#253 = CARTESIAN_POINT ( 'NONE',  ( 0.000000000000000000, 0.000000000000000000, -7.149999999999997691 ) ) ;
#254 = AXIS2_PLACEMENT_3D ( 'NONE', #94, #28, #267 ) ;
#255 = PERSON_AND_ORGANIZATION ( #123, #131 ) ;
#256 = CALENDAR_DATE ( 2021, 21, 12 ) ;
#257 = AXIS2_PLACEMENT_3D ( 'NONE', #167, #250, #25 ) ;
#258 = PERSON_AND_ORGANIZATION ( #123, #131 ) ;
#259 = VERTEX_POINT ( 'NONE', #136 ) ;
#260 = DIRECTION ( 'NONE',  ( 0.000000000000000000, 0.000000000000000000, -1.000000000000000000 ) ) ;
#261 = CARTESIAN_POINT ( 'NONE',  ( -12.50000000000000000, 8.756224613903571573E-16, 7.149999999999996803 ) ) ;
#262 = ADVANCED_FACE ( 'NONE', ( #120 ), #133, .F. ) ;
#263 = CARTESIAN_POINT ( 'NONE',  ( 0.000000000000000000, 0.000000000000000000, 0.000000000000000000 ) ) ;
#264 = AXIS2_PLACEMENT_3D ( 'NONE', #221, #18, #155 ) ;
#265 = CYLINDRICAL_SURFACE ( 'NONE', #43, 7.149999999999997691 ) ;
#266 = CARTESIAN_POINT ( 'NONE',  ( -1.224646799147352468E-16, 8.756224613903573545E-16, 7.149999999999999467 ) ) ;
#267 = DIRECTION ( 'NONE',  ( 0.000000000000000000, 0.000000000000000000, -1.000000000000000000 ) ) ;
#268 = CIRCLE ( 'NONE', #257, 7.149999999999998579 ) ;
#269 =( NAMED_UNIT ( * ) SI_UNIT ( $, .STERADIAN. ) SOLID_ANGLE_UNIT ( ) );
#270 = CC_DESIGN_DATE_AND_TIME_ASSIGNMENT ( #169, #237, ( #140 ) ) ;
#271 = AXIS2_PLACEMENT_3D ( 'NONE', #286, #14, #110 ) ;
#272 = CARTESIAN_POINT ( 'NONE',  ( -16.69868421168115091, -0.1622160136300023203, 4.644979374044086271E-16 ) ) ;
#273 = ORIENTED_EDGE ( 'NONE', *, *, #280, .F. ) ;
#274 = CC_DESIGN_APPROVAL ( #74, ( #153 ) ) ;
#275 = COORDINATED_UNIVERSAL_TIME_OFFSET ( 1, 0, .AHEAD. ) ;
#276 = ORIENTED_EDGE ( 'NONE', *, *, #47, .F. ) ;
#277 = CONICAL_SURFACE ( 'NONE', #29, 7.149999999999996803, 1.029744258676654090 ) ;
#278 = APPROVAL_STATUS ( 'not_yet_approved' ) ;
#279 = DATE_AND_TIME ( #56, #71 ) ;
#280 = EDGE_CURVE ( 'NONE', #66, #156, #96, .T. ) ;
#281 = EDGE_LOOP ( 'NONE', ( #191, #126, #129, #109, #134 ) ) ;
#282 = ADVANCED_BREP_SHAPE_REPRESENTATION ( 'A_0221-014', ( #5, #12 ), #228 ) ;
#283 = CARTESIAN_POINT ( 'NONE',  ( -12.50000000000000000, 8.756224613903571573E-16, 7.149999999999996803 ) ) ;
#284 = DIRECTION ( 'NONE',  ( -1.000000000000000000, 0.000000000000000000, 0.000000000000000000 ) ) ;
#285 = PLANE ( 'NONE',  #149 ) ;
#286 = CARTESIAN_POINT ( 'NONE',  ( -1.224646799147352468E-16, 0.000000000000000000, 0.000000000000000000 ) ) ;
#287 = DIRECTION ( 'NONE',  ( 1.000000000000000000, -0.000000000000000000, -0.000000000000000000 ) ) ;
#288 = FACE_OUTER_BOUND ( 'NONE', #281, .T. ) ;
#289 = EDGE_CURVE ( 'NONE', #156, #66, #193, .T. ) ;
#290 = CARTESIAN_POINT ( 'NONE',  ( -6.699999999999999289, -8.205133554287266562E-16, 0.000000000000000000 ) ) ;
#291 = AXIS2_PLACEMENT_3D ( 'NONE', #117, #185, #211 ) ;
ENDSEC;
END-ISO-10303-21;
