ISO-10303-21;
HEADER;
FILE_DESCRIPTION (( 'STEP AP203' ),
    '1' );
FILE_NAME ('A_0220-025.STEP',
    '2019-03-16T10:44:15',
    ( '' ),
    ( '' ),
    'SwSTEP 2.0',
    'SolidWorks 2013',
    '' );
FILE_SCHEMA (( 'CONFIG_CONTROL_DESIGN' ));
ENDSEC;

DATA;
#1 = DIRECTION ( 'NONE',  ( 1.000000000000000000, -0.0000000000000000000, -0.0000000000000000000 ) ) ;
#2 = AXIS2_PLACEMENT_3D ( 'NONE', #44, #117, #166 ) ;
#3 = CARTESIAN_POINT ( 'NONE',  ( 0.0000000000000000000, 0.0000000000000000000, 0.0000000000000000000 ) ) ;
#4 = VERTEX_POINT ( 'NONE', #227 ) ;
#5 = CYLINDRICAL_SURFACE ( 'NONE', #32, 2.499999999999992900 ) ;
#6 = LINE ( 'NONE', #116, #100 ) ;
#7 = APPROVAL_ROLE ( '' ) ;
#8 = CC_DESIGN_DATE_AND_TIME_ASSIGNMENT ( #214, #83, ( #101 ) ) ;
#9 = APPROVAL_ROLE ( '' ) ;
#10 = VECTOR ( 'NONE', #19, 1000.000000000000000 ) ;
#11 = EDGE_CURVE ( 'NONE', #69, #181, #115, .T. ) ;
#12 = EDGE_LOOP ( 'NONE', ( #51, #196, #125, #81, #138 ) ) ;
#13 = DATE_AND_TIME ( #130, #155 ) ;
#14 = EDGE_LOOP ( 'NONE', ( #110, #65, #127, #244 ) ) ;
#15 = ORGANIZATION ( 'NEURÈENÝ', 'NEURÈENÝ', '' ) ;
#16 = CARTESIAN_POINT ( 'NONE',  ( -0.2425512860841048900, 0.0000000000000000000, 0.0000000000000000000 ) ) ;
#17 = AXIS2_PLACEMENT_3D ( 'NONE', #189, #76, #168 ) ;
#18 = CARTESIAN_POINT ( 'NONE',  ( -18.19999999999999900, 0.0000000000000000000, -2.499999999999995600 ) ) ;
#19 = DIRECTION ( 'NONE',  ( 1.000000000000000000, -0.0000000000000000000, -0.0000000000000000000 ) ) ;
#20 = CC_DESIGN_DATE_AND_TIME_ASSIGNMENT ( #13, #50, ( #72 ) ) ;
#21 = CARTESIAN_POINT ( 'NONE',  ( -18.19999999999999900, 0.0000000000000000000, 0.0000000000000000000 ) ) ;
#22 = AXIS2_PLACEMENT_3D ( 'NONE', #134, #132, #210 ) ;
#23 = DIRECTION ( 'NONE',  ( 0.0000000000000000000, 0.0000000000000000000, -1.000000000000000000 ) ) ;
#24 = CARTESIAN_POINT ( 'NONE',  ( -0.2425512860841048900, 3.061616997868373800E-016, 2.499999999999992900 ) ) ;
#25 = ADVANCED_FACE ( 'NONE', ( #193 ), #178, .T. ) ;
#26 = EDGE_CURVE ( 'NONE', #181, #4, #75, .T. ) ;
#27 = SECURITY_CLASSIFICATION_LEVEL ( 'unclassified' ) ;
#28 = CIRCLE ( 'NONE', #220, 2.499999999999995600 ) ;
#29 = VERTEX_POINT ( 'NONE', #73 ) ;
#30 = AXIS2_PLACEMENT_3D ( 'NONE', #79, #149, #146 ) ;
#31 = ORIENTED_EDGE ( 'NONE', *, *, #80, .F. ) ;
#32 = AXIS2_PLACEMENT_3D ( 'NONE', #208, #167, #186 ) ;
#33 = ORIENTED_EDGE ( 'NONE', *, *, #107, .F. ) ;
#34 = EDGE_CURVE ( 'NONE', #88, #69, #28, .T. ) ;
#35 = VERTEX_POINT ( 'NONE', #71 ) ;
#36 = FACE_OUTER_BOUND ( 'NONE', #14, .T. ) ;
#37 = CARTESIAN_POINT ( 'NONE',  ( -0.2425512860841048900, 0.0000000000000000000, 0.0000000000000000000 ) ) ;
#38 = CARTESIAN_POINT ( 'NONE',  ( -12.48999999999999800, -1.529583852135043800E-015, 0.0000000000000000000 ) ) ;
#39 = DIRECTION ( 'NONE',  ( 0.0000000000000000000, 0.0000000000000000000, 1.000000000000000000 ) ) ;
#40 = ADVANCED_FACE ( 'NONE', ( #36 ), #200, .T. ) ;
#41 = DIRECTION ( 'NONE',  ( 0.5150380749100562600, 1.049727191138617200E-016, 0.8571673007021111100 ) ) ;
#42 = ORIENTED_EDGE ( 'NONE', *, *, #113, .F. ) ;
#43 = CC_DESIGN_APPROVAL ( #68, ( #72 ) ) ;
#44 = CARTESIAN_POINT ( 'NONE',  ( -12.48999999999999800, -1.529583852135043800E-015, 0.0000000000000000000 ) ) ;
#45 = AXIS2_PLACEMENT_3D ( 'NONE', #21, #78, #93 ) ;
#46 = ORIENTED_EDGE ( 'NONE', *, *, #26, .T. ) ;
#47 = APPLICATION_CONTEXT ( 'configuration controlled 3d designs of mechanical parts and assemblies' ) ;
#48 = CONICAL_SURFACE ( 'NONE', #45, 2.499999999999995600, 1.029744258676652100 ) ;
#49 = PRODUCT_RELATED_PRODUCT_CATEGORY ( 'detail', '', ( #112 ) ) ;
#50 = DATE_TIME_ROLE ( 'classification_date' ) ;
#51 = ORIENTED_EDGE ( 'NONE', *, *, #34, .F. ) ;
#52 = CIRCLE ( 'NONE', #67, 2.499999999999992900 ) ;
#53 = ORIENTED_EDGE ( 'NONE', *, *, #113, .T. ) ;
#54 = APPROVAL_DATE_TIME ( #222, #68 ) ;
#55 = CYLINDRICAL_SURFACE ( 'NONE', #140, 2.499999999999992900 ) ;
#56 = UNCERTAINTY_MEASURE_WITH_UNIT (LENGTH_MEASURE( 1.000000000000000100E-005 ), #238, 'distance_accuracy_value', 'NONE');
#57 = PRODUCT_DEFINITION_SHAPE ( 'NONE', 'NONE',  #101 ) ;
#58 = ORIENTED_EDGE ( 'NONE', *, *, #176, .T. ) ;
#59 = PERSON_AND_ORGANIZATION ( #165, #15 ) ;
#60 = CARTESIAN_POINT ( 'NONE',  ( -18.19999999999999900, 0.0000000000000000000, 0.0000000000000000000 ) ) ;
#61 = ADVANCED_FACE ( 'NONE', ( #96 ), #55, .F. ) ;
#62 = CIRCLE ( 'NONE', #17, 2.499999999999995600 ) ;
#63 = LOCAL_TIME ( 11, 44, 15.00000000000000000, #199 ) ;
#64 =( NAMED_UNIT ( * ) SI_UNIT ( $, .STERADIAN. ) SOLID_ANGLE_UNIT ( ) );
#65 = ORIENTED_EDGE ( 'NONE', *, *, #198, .T. ) ;
#66 = APPROVAL_PERSON_ORGANIZATION ( #114, #68, #9 ) ;
#67 = AXIS2_PLACEMENT_3D ( 'NONE', #231, #103, #151 ) ;
#68 = APPROVAL ( #195, 'NEURÈENÝ' ) ;
#69 = VERTEX_POINT ( 'NONE', #18 ) ;
#70 = COORDINATED_UNIVERSAL_TIME_OFFSET ( 1, 0, .AHEAD. ) ;
#71 = CARTESIAN_POINT ( 'NONE',  ( -24.98999999999999800, -2.294988101602139200E-015, 0.0000000000000000000 ) ) ;
#72 = SECURITY_CLASSIFICATION ( '', '', #27 ) ;
#73 = CARTESIAN_POINT ( 'NONE',  ( -0.2425512860841048900, -2.499999999999992900, 3.061616997868374300E-016 ) ) ;
#74 = CALENDAR_DATE ( 2019, 16, 3 ) ;
#75 = CIRCLE ( 'NONE', #105, 2.499999999999992900 ) ;
#76 = DIRECTION ( 'NONE',  ( 1.000000000000000000, -0.0000000000000000000, -0.0000000000000000000 ) ) ;
#77 = ORIENTED_EDGE ( 'NONE', *, *, #11, .T. ) ;
#78 = DIRECTION ( 'NONE',  ( 1.000000000000000000, -0.0000000000000000000, -0.0000000000000000000 ) ) ;
#79 = CARTESIAN_POINT ( 'NONE',  ( -12.48999999999999800, -1.529583852135043800E-015, 0.0000000000000000000 ) ) ;
#80 = EDGE_CURVE ( 'NONE', #209, #29, #245, .T. ) ;
#81 = ORIENTED_EDGE ( 'NONE', *, *, #206, .T. ) ;
#82 = MECHANICAL_CONTEXT ( 'NONE', #212, 'mechanical' ) ;
#83 = DATE_TIME_ROLE ( 'creation_date' ) ;
#84 = EDGE_LOOP ( 'NONE', ( #33, #42, #77, #46, #58 ) ) ;
#85 = APPROVAL_DATE_TIME ( #142, #137 ) ;
#86 = FACE_OUTER_BOUND ( 'NONE', #141, .T. ) ;
#87 = AXIS2_PLACEMENT_3D ( 'NONE', #185, #121, #172 ) ;
#88 = VERTEX_POINT ( 'NONE', #179 ) ;
#89 =( GEOMETRIC_REPRESENTATION_CONTEXT ( 3 ) GLOBAL_UNCERTAINTY_ASSIGNED_CONTEXT ( ( #56 ) ) GLOBAL_UNIT_ASSIGNED_CONTEXT ( ( #238, #174, #64 ) ) REPRESENTATION_CONTEXT ( 'NONE', 'WORKASPACE' ) );
#90 = DIRECTION ( 'NONE',  ( 0.0000000000000000000, 0.0000000000000000000, 1.000000000000000000 ) ) ;
#91 = ORIENTED_EDGE ( 'NONE', *, *, #97, .F. ) ;
#92 = LINE ( 'NONE', #98, #136 ) ;
#93 = DIRECTION ( 'NONE',  ( 0.0000000000000000000, 0.0000000000000000000, -1.000000000000000000 ) ) ;
#94 = DIRECTION ( 'NONE',  ( 0.5150380749100562600, 0.0000000000000000000, -0.8571673007021111100 ) ) ;
#95 = ORIENTED_EDGE ( 'NONE', *, *, #198, .F. ) ;
#96 = FACE_OUTER_BOUND ( 'NONE', #12, .T. ) ;
#97 = EDGE_CURVE ( 'NONE', #242, #69, #6, .T. ) ;
#98 = CARTESIAN_POINT ( 'NONE',  ( -18.19999999999999900, 3.061616997868377700E-016, 2.499999999999995600 ) ) ;
#99 = COORDINATED_UNIVERSAL_TIME_OFFSET ( 1, 0, .AHEAD. ) ;
#100 = VECTOR ( 'NONE', #94, 1000.000000000000000 ) ;
#101 = PRODUCT_DEFINITION ( 'NEZNÁMÝ', '', #215, #234 ) ;
#102 = PERSON_AND_ORGANIZATION_ROLE ( 'creator' ) ;
#103 = DIRECTION ( 'NONE',  ( 1.000000000000000000, -0.0000000000000000000, -0.0000000000000000000 ) ) ;
#104 = CC_DESIGN_SECURITY_CLASSIFICATION ( #72, ( #215 ) ) ;
#105 = AXIS2_PLACEMENT_3D ( 'NONE', #37, #224, #39 ) ;
#106 = VECTOR ( 'NONE', #191, 1000.000000000000000 ) ;
#107 = EDGE_CURVE ( 'NONE', #88, #209, #194, .T. ) ;
#108 = CARTESIAN_POINT ( 'NONE',  ( -12.48999999999999800, -1.529583852135043800E-015, 0.0000000000000000000 ) ) ;
#109 = CARTESIAN_POINT ( 'NONE',  ( 0.0000000000000000000, 3.061616997868373800E-016, 2.499999999999992900 ) ) ;
#110 = ORIENTED_EDGE ( 'NONE', *, *, #124, .F. ) ;
#111 = APPROVAL_PERSON_ORGANIZATION ( #228, #218, #7 ) ;
#112 = PRODUCT ( 'A_0220-025', 'A_0220-025', '', ( #82 ) ) ;
#113 = EDGE_CURVE ( 'NONE', #69, #88, #62, .T. ) ;
#114 = PERSON_AND_ORGANIZATION ( #165, #15 ) ;
#115 = LINE ( 'NONE', #163, #10 ) ;
#116 = CARTESIAN_POINT ( 'NONE',  ( -18.19999999999999900, 0.0000000000000000000, -2.499999999999995600 ) ) ;
#117 = DIRECTION ( 'NONE',  ( -0.0000000000000000000, 0.0000000000000000000, -1.000000000000000000 ) ) ;
#118 = APPROVAL_ROLE ( '' ) ;
#119 = ADVANCED_FACE ( 'NONE', ( #86 ), #197, .F. ) ;
#120 = ORIENTED_EDGE ( 'NONE', *, *, #97, .T. ) ;
#121 = DIRECTION ( 'NONE',  ( 0.0000000000000000000, 0.0000000000000000000, 1.000000000000000000 ) ) ;
#122 = CALENDAR_DATE ( 2019, 16, 3 ) ;
#123 = PERSON_AND_ORGANIZATION_ROLE ( 'design_owner' ) ;
#124 = EDGE_CURVE ( 'NONE', #35, #29, #190, .T. ) ;
#125 = ORIENTED_EDGE ( 'NONE', *, *, #80, .T. ) ;
#126 = LOCAL_TIME ( 11, 44, 15.00000000000000000, #173 ) ;
#127 = ORIENTED_EDGE ( 'NONE', *, *, #26, .F. ) ;
#128 = DIRECTION ( 'NONE',  ( 0.0000000000000000000, 0.0000000000000000000, -1.000000000000000000 ) ) ;
#129 = DIRECTION ( 'NONE',  ( 0.0000000000000000000, 0.0000000000000000000, 1.000000000000000000 ) ) ;
#130 = CALENDAR_DATE ( 2019, 16, 3 ) ;
#131 = DIRECTION ( 'NONE',  ( 1.000000000000000000, -0.0000000000000000000, -0.0000000000000000000 ) ) ;
#132 = DIRECTION ( 'NONE',  ( 1.000000000000000000, -0.0000000000000000000, -0.0000000000000000000 ) ) ;
#133 = DIRECTION ( 'NONE',  ( 1.000000000000000000, -0.0000000000000000000, -0.0000000000000000000 ) ) ;
#134 = CARTESIAN_POINT ( 'NONE',  ( -0.2425512860841048900, 0.0000000000000000000, 0.0000000000000000000 ) ) ;
#135 = PERSON_AND_ORGANIZATION ( #165, #15 ) ;
#136 = VECTOR ( 'NONE', #41, 1000.000000000000000 ) ;
#137 = APPROVAL ( #213, 'NEURÈENÝ' ) ;
#138 = ORIENTED_EDGE ( 'NONE', *, *, #11, .F. ) ;
#139 = CIRCLE ( 'NONE', #2, 12.50000000000000000 ) ;
#140 = AXIS2_PLACEMENT_3D ( 'NONE', #3, #131, #128 ) ;
#141 = EDGE_LOOP ( 'NONE', ( #91, #188, #204 ) ) ;
#142 = DATE_AND_TIME ( #122, #175 ) ;
#143 = AXIS2_PLACEMENT_3D ( 'NONE', #38, #129, #205 ) ;
#144 = PERSON_AND_ORGANIZATION ( #165, #15 ) ;
#145 = CC_DESIGN_APPROVAL ( #137, ( #101 ) ) ;
#146 = DIRECTION ( 'NONE',  ( 0.0000000000000000000, -1.000000000000000000, 1.224646799147353200E-016 ) ) ;
#147 = CARTESIAN_POINT ( 'NONE',  ( -0.2425512860841048900, 0.0000000000000000000, -2.499999999999992900 ) ) ;
#148 = ADVANCED_FACE ( 'NONE', ( #216 ), #5, .F. ) ;
#149 = DIRECTION ( 'NONE',  ( -1.499759782661857600E-032, 1.224646799147353200E-016, 1.000000000000000000 ) ) ;
#150 = CARTESIAN_POINT ( 'NONE',  ( -19.70215154756890300, -4.825635365809266500E-015, 0.0000000000000000000 ) ) ;
#151 = DIRECTION ( 'NONE',  ( 0.0000000000000000000, 0.0000000000000000000, 1.000000000000000000 ) ) ;
#152 = CC_DESIGN_PERSON_AND_ORGANIZATION_ASSIGNMENT ( #59, #123, ( #112 ) ) ;
#153 = APPLICATION_PROTOCOL_DEFINITION ( 'international standard', 'config_control_design', 1994, #212 ) ;
#154 = PERSON_AND_ORGANIZATION_ROLE ( 'creator' ) ;
#155 = LOCAL_TIME ( 11, 44, 15.00000000000000000, #70 ) ;
#156 = ADVANCED_BREP_SHAPE_REPRESENTATION ( 'A_0220-025', ( #223, #87 ), #89 ) ;
#157 = AXIS2_PLACEMENT_3D ( 'NONE', #16, #1, #162 ) ;
#158 = ORIENTED_EDGE ( 'NONE', *, *, #184, .F. ) ;
#159 = PERSON_AND_ORGANIZATION ( #165, #15 ) ;
#160 = CARTESIAN_POINT ( 'NONE',  ( -18.19999999999999900, 0.0000000000000000000, 0.0000000000000000000 ) ) ;
#161 = SHAPE_DEFINITION_REPRESENTATION ( #57, #156 ) ;
#162 = DIRECTION ( 'NONE',  ( 0.0000000000000000000, 0.0000000000000000000, 1.000000000000000000 ) ) ;
#163 = CARTESIAN_POINT ( 'NONE',  ( 0.0000000000000000000, 0.0000000000000000000, -2.499999999999992900 ) ) ;
#164 = DIRECTION ( 'NONE',  ( 1.000000000000000000, -0.0000000000000000000, -0.0000000000000000000 ) ) ;
#165 = PERSON ( 'NEURÈENÝ', 'NEURÈENÝ', 'NEURÈENÝ', ('NEURÈENÝ'), ('NEURÈENÝ'), ('NEURÈENÝ') ) ;
#166 = DIRECTION ( 'NONE',  ( -1.000000000000000000, 0.0000000000000000000, 0.0000000000000000000 ) ) ;
#167 = DIRECTION ( 'NONE',  ( 1.000000000000000000, -0.0000000000000000000, -0.0000000000000000000 ) ) ;
#168 = DIRECTION ( 'NONE',  ( 0.0000000000000000000, 0.0000000000000000000, -1.000000000000000000 ) ) ;
#169 = DATE_AND_TIME ( #207, #63 ) ;
#170 = AXIS2_PLACEMENT_3D ( 'NONE', #108, #90, #203 ) ;
#171 = CLOSED_SHELL ( 'NONE', ( #61, #119, #25, #40, #187, #148 ) ) ;
#172 = DIRECTION ( 'NONE',  ( 1.000000000000000000, 0.0000000000000000000, 0.0000000000000000000 ) ) ;
#173 = COORDINATED_UNIVERSAL_TIME_OFFSET ( 1, 0, .AHEAD. ) ;
#174 =( NAMED_UNIT ( * ) PLANE_ANGLE_UNIT ( ) SI_UNIT ( $, .RADIAN. ) );
#175 = LOCAL_TIME ( 11, 44, 15.00000000000000000, #211 ) ;
#176 = EDGE_CURVE ( 'NONE', #4, #209, #241, .T. ) ;
#177 = APPROVAL_DATE_TIME ( #169, #218 ) ;
#178 = SPHERICAL_SURFACE ( 'NONE', #143, 12.50000000000000000 ) ;
#179 = CARTESIAN_POINT ( 'NONE',  ( -18.19999999999999900, 3.061616997868377700E-016, 2.499999999999995600 ) ) ;
#180 = DIRECTION ( 'NONE',  ( 0.0000000000000000000, 0.0000000000000000000, -1.000000000000000000 ) ) ;
#181 = VERTEX_POINT ( 'NONE', #147 ) ;
#182 = CC_DESIGN_PERSON_AND_ORGANIZATION_ASSIGNMENT ( #219, #239, ( #72 ) ) ;
#183 = APPROVAL_PERSON_ORGANIZATION ( #202, #137, #118 ) ;
#184 = EDGE_CURVE ( 'NONE', #242, #88, #92, .T. ) ;
#185 = CARTESIAN_POINT ( 'NONE',  ( 0.0000000000000000000, 0.0000000000000000000, 0.0000000000000000000 ) ) ;
#186 = DIRECTION ( 'NONE',  ( 0.0000000000000000000, 0.0000000000000000000, -1.000000000000000000 ) ) ;
#187 = ADVANCED_FACE ( 'NONE', ( #229 ), #48, .F. ) ;
#188 = ORIENTED_EDGE ( 'NONE', *, *, #184, .T. ) ;
#189 = CARTESIAN_POINT ( 'NONE',  ( -18.19999999999999900, 0.0000000000000000000, 0.0000000000000000000 ) ) ;
#190 = CIRCLE ( 'NONE', #30, 12.50000000000000000 ) ;
#191 = DIRECTION ( 'NONE',  ( 1.000000000000000000, -0.0000000000000000000, -0.0000000000000000000 ) ) ;
#192 = PERSON_AND_ORGANIZATION_ROLE ( 'design_supplier' ) ;
#193 = FACE_OUTER_BOUND ( 'NONE', #225, .T. ) ;
#194 = LINE ( 'NONE', #109, #106 ) ;
#195 = APPROVAL_STATUS ( 'not_yet_approved' ) ;
#196 = ORIENTED_EDGE ( 'NONE', *, *, #107, .T. ) ;
#197 = CONICAL_SURFACE ( 'NONE', #235, 2.499999999999995600, 1.029744258676652100 ) ;
#198 = EDGE_CURVE ( 'NONE', #35, #4, #139, .T. ) ;
#199 = COORDINATED_UNIVERSAL_TIME_OFFSET ( 1, 0, .AHEAD. ) ;
#200 = SPHERICAL_SURFACE ( 'NONE', #170, 12.50000000000000000 ) ;
#201 = CC_DESIGN_PERSON_AND_ORGANIZATION_ASSIGNMENT ( #135, #154, ( #101 ) ) ;
#202 = PERSON_AND_ORGANIZATION ( #165, #15 ) ;
#203 = DIRECTION ( 'NONE',  ( -1.387778780781445700E-016, 1.000000000000000000, 0.0000000000000000000 ) ) ;
#204 = ORIENTED_EDGE ( 'NONE', *, *, #34, .T. ) ;
#205 = DIRECTION ( 'NONE',  ( -1.387778780781445700E-016, 1.000000000000000000, 0.0000000000000000000 ) ) ;
#206 = EDGE_CURVE ( 'NONE', #29, #181, #52, .T. ) ;
#207 = CALENDAR_DATE ( 2019, 16, 3 ) ;
#208 = CARTESIAN_POINT ( 'NONE',  ( 0.0000000000000000000, 0.0000000000000000000, 0.0000000000000000000 ) ) ;
#209 = VERTEX_POINT ( 'NONE', #24 ) ;
#210 = DIRECTION ( 'NONE',  ( 0.0000000000000000000, -8.881784197001252300E-016, 1.000000000000000000 ) ) ;
#211 = COORDINATED_UNIVERSAL_TIME_OFFSET ( 1, 0, .AHEAD. ) ;
#212 = APPLICATION_CONTEXT ( 'configuration controlled 3d designs of mechanical parts and assemblies' ) ;
#213 = APPROVAL_STATUS ( 'not_yet_approved' ) ;
#214 = DATE_AND_TIME ( #226, #237 ) ;
#215 = PRODUCT_DEFINITION_FORMATION_WITH_SPECIFIED_SOURCE ( 'LIBOVOLNÝ', '', #112, .NOT_KNOWN. ) ;
#216 = FACE_OUTER_BOUND ( 'NONE', #84, .T. ) ;
#217 = APPROVAL_STATUS ( 'not_yet_approved' ) ;
#218 = APPROVAL ( #217, 'NEURÈENÝ' ) ;
#219 = PERSON_AND_ORGANIZATION ( #165, #15 ) ;
#220 = AXIS2_PLACEMENT_3D ( 'NONE', #160, #164, #180 ) ;
#221 = ORIENTED_EDGE ( 'NONE', *, *, #124, .T. ) ;
#222 = DATE_AND_TIME ( #74, #126 ) ;
#223 = MANIFOLD_SOLID_BREP ( 'M6 závit1', #171 ) ;
#224 = DIRECTION ( 'NONE',  ( 1.000000000000000000, -0.0000000000000000000, -0.0000000000000000000 ) ) ;
#225 = EDGE_LOOP ( 'NONE', ( #95, #221, #31, #240 ) ) ;
#226 = CALENDAR_DATE ( 2019, 16, 3 ) ;
#227 = CARTESIAN_POINT ( 'NONE',  ( -0.2425512860841048900, 2.499999999999991600, 0.0000000000000000000 ) ) ;
#228 = PERSON_AND_ORGANIZATION ( #165, #15 ) ;
#229 = FACE_OUTER_BOUND ( 'NONE', #233, .T. ) ;
#230 = CC_DESIGN_PERSON_AND_ORGANIZATION_ASSIGNMENT ( #159, #102, ( #215 ) ) ;
#231 = CARTESIAN_POINT ( 'NONE',  ( -0.2425512860841048900, 0.0000000000000000000, 0.0000000000000000000 ) ) ;
#232 = CC_DESIGN_APPROVAL ( #218, ( #215 ) ) ;
#233 = EDGE_LOOP ( 'NONE', ( #158, #120, #53 ) ) ;
#234 = DESIGN_CONTEXT ( 'detailed design', #47, 'design' ) ;
#235 = AXIS2_PLACEMENT_3D ( 'NONE', #60, #133, #23 ) ;
#236 = APPLICATION_PROTOCOL_DEFINITION ( 'international standard', 'config_control_design', 1994, #47 ) ;
#237 = LOCAL_TIME ( 11, 44, 15.00000000000000000, #99 ) ;
#238 =( LENGTH_UNIT ( ) NAMED_UNIT ( * ) SI_UNIT ( .MILLI., .METRE. ) );
#239 = PERSON_AND_ORGANIZATION_ROLE ( 'classification_officer' ) ;
#240 = ORIENTED_EDGE ( 'NONE', *, *, #176, .F. ) ;
#241 = CIRCLE ( 'NONE', #22, 2.499999999999992900 ) ;
#242 = VERTEX_POINT ( 'NONE', #150 ) ;
#243 = CC_DESIGN_PERSON_AND_ORGANIZATION_ASSIGNMENT ( #144, #192, ( #215 ) ) ;
#244 = ORIENTED_EDGE ( 'NONE', *, *, #206, .F. ) ;
#245 = CIRCLE ( 'NONE', #157, 2.499999999999992900 ) ;
ENDSEC;
END-ISO-10303-21;
