ISO-10303-21;
HEADER;
FILE_DESCRIPTION (( 'STEP AP203' ),
    '1' );
FILE_NAME ('A_0221-012.STEP',
    '2019-03-16T05:53:32',
    ( '' ),
    ( '' ),
    'SwSTEP 2.0',
    'SolidWorks 2013',
    '' );
FILE_SCHEMA (( 'CONFIG_CONTROL_DESIGN' ));
ENDSEC;

DATA;
#1 = DIRECTION ( 'NONE',  ( 0.0000000000000000000, 0.0000000000000000000, -1.000000000000000000 ) ) ;
#2 = APPROVAL_PERSON_ORGANIZATION ( #122, #208, #80 ) ;
#3 = SECURITY_CLASSIFICATION ( '', '', #84 ) ;
#4 = EDGE_LOOP ( 'NONE', ( #161, #94, #224, #34 ) ) ;
#5 = DIRECTION ( 'NONE',  ( 1.000000000000000000, -0.0000000000000000000, -0.0000000000000000000 ) ) ;
#6 = DIRECTION ( 'NONE',  ( 0.0000000000000000000, -1.000000000000000000, 1.224646799147353200E-016 ) ) ;
#7 =( NAMED_UNIT ( * ) PLANE_ANGLE_UNIT ( ) SI_UNIT ( $, .RADIAN. ) );
#8 = DIRECTION ( 'NONE',  ( -1.224646799147353200E-016, 1.000000000000000000, 0.0000000000000000000 ) ) ;
#9 = AXIS2_PLACEMENT_3D ( 'NONE', #113, #197, #237 ) ;
#10 = PERSON_AND_ORGANIZATION_ROLE ( 'creator' ) ;
#11 = EDGE_CURVE ( 'NONE', #231, #66, #210, .T. ) ;
#12 = VERTEX_POINT ( 'NONE', #234 ) ;
#13 = EDGE_CURVE ( 'NONE', #12, #180, #115, .T. ) ;
#14 = LINE ( 'NONE', #57, #254 ) ;
#15 = CARTESIAN_POINT ( 'NONE',  ( 2.866700968980630400E-017, 6.614378277661474600, 0.0000000000000000000 ) ) ;
#16 = DATE_AND_TIME ( #120, #75 ) ;
#17 = ORIENTED_EDGE ( 'NONE', *, *, #11, .T. ) ;
#18 = CARTESIAN_POINT ( 'NONE',  ( -12.50000000000000000, 0.0000000000000000000, 0.0000000000000000000 ) ) ;
#19 = EDGE_CURVE ( 'NONE', #180, #12, #108, .T. ) ;
#20 = ORIENTED_EDGE ( 'NONE', *, *, #103, .T. ) ;
#21 = DIRECTION ( 'NONE',  ( -8.673617379884035500E-017, 1.000000000000000000, 0.0000000000000000000 ) ) ;
#22 = LINE ( 'NONE', #97, #213 ) ;
#23 =( GEOMETRIC_REPRESENTATION_CONTEXT ( 3 ) GLOBAL_UNCERTAINTY_ASSIGNED_CONTEXT ( ( #45 ) ) GLOBAL_UNIT_ASSIGNED_CONTEXT ( ( #134, #7, #116 ) ) REPRESENTATION_CONTEXT ( 'NONE', 'WORKASPACE' ) );
#24 = ADVANCED_FACE ( 'NONE', ( #247 ), #175, .T. ) ;
#25 = MECHANICAL_CONTEXT ( 'NONE', #54, 'mechanical' ) ;
#26 = ORIENTED_EDGE ( 'NONE', *, *, #13, .F. ) ;
#27 = ORIENTED_EDGE ( 'NONE', *, *, #112, .F. ) ;
#28 = EDGE_CURVE ( 'NONE', #56, #91, #195, .T. ) ;
#29 = LOCAL_TIME ( 6, 53, 32.00000000000000000, #50 ) ;
#30 = FACE_OUTER_BOUND ( 'NONE', #165, .T. ) ;
#31 = DIRECTION ( 'NONE',  ( -8.673617379884035500E-017, 1.000000000000000000, 0.0000000000000000000 ) ) ;
#32 = PRODUCT_DEFINITION ( 'NEZNÁMÝ', '', #201, #67 ) ;
#33 = DIRECTION ( 'NONE',  ( 1.000000000000000000, -0.0000000000000000000, -0.0000000000000000000 ) ) ;
#34 = ORIENTED_EDGE ( 'NONE', *, *, #19, .T. ) ;
#35 = ORIENTED_EDGE ( 'NONE', *, *, #162, .T. ) ;
#36 = DIRECTION ( 'NONE',  ( -1.224646799147353200E-016, 1.000000000000000000, 0.0000000000000000000 ) ) ;
#37 = COORDINATED_UNIVERSAL_TIME_OFFSET ( 1, 0, .AHEAD. ) ;
#38 = DIRECTION ( 'NONE',  ( 1.000000000000000000, -0.0000000000000000000, -0.0000000000000000000 ) ) ;
#39 = ORIENTED_EDGE ( 'NONE', *, *, #133, .F. ) ;
#40 = CC_DESIGN_PERSON_AND_ORGANIZATION_ASSIGNMENT ( #131, #202, ( #3 ) ) ;
#41 = LINE ( 'NONE', #152, #63 ) ;
#42 = AXIS2_PLACEMENT_3D ( 'NONE', #77, #78, #6 ) ;
#43 = APPLICATION_CONTEXT ( 'configuration controlled 3d designs of mechanical parts and assemblies' ) ;
#44 = APPROVAL_STATUS ( 'not_yet_approved' ) ;
#45 = UNCERTAINTY_MEASURE_WITH_UNIT (LENGTH_MEASURE( 1.000000000000000100E-005 ), #134, 'distance_accuracy_value', 'NONE');
#46 = APPROVAL_PERSON_ORGANIZATION ( #190, #214, #102 ) ;
#47 = AXIS2_PLACEMENT_3D ( 'NONE', #111, #5, #188 ) ;
#48 = PERSON_AND_ORGANIZATION ( #236, #59 ) ;
#49 = PRODUCT_DEFINITION_SHAPE ( 'NONE', 'NONE',  #32 ) ;
#50 = COORDINATED_UNIVERSAL_TIME_OFFSET ( 1, 0, .AHEAD. ) ;
#51 = CC_DESIGN_PERSON_AND_ORGANIZATION_ASSIGNMENT ( #125, #139, ( #201 ) ) ;
#52 = DIRECTION ( 'NONE',  ( 1.000000000000000000, -0.0000000000000000000, -0.0000000000000000000 ) ) ;
#53 = AXIS2_PLACEMENT_3D ( 'NONE', #174, #246, #82 ) ;
#54 = APPLICATION_CONTEXT ( 'configuration controlled 3d designs of mechanical parts and assemblies' ) ;
#55 = DIRECTION ( 'NONE',  ( 0.0000000000000000000, 0.0000000000000000000, -1.000000000000000000 ) ) ;
#56 = VERTEX_POINT ( 'NONE', #110 ) ;
#57 = CARTESIAN_POINT ( 'NONE',  ( 0.0000000000000000000, 0.0000000000000000000, -6.149999999999998600 ) ) ;
#58 = DIRECTION ( 'NONE',  ( 1.000000000000000000, -0.0000000000000000000, -0.0000000000000000000 ) ) ;
#59 = ORGANIZATION ( 'NEURÈENÝ', 'NEURÈENÝ', '' ) ;
#60 = EDGE_LOOP ( 'NONE', ( #105, #26 ) ) ;
#61 = ADVANCED_FACE ( 'NONE', ( #183 ), #199, .F. ) ;
#62 = APPROVAL ( #44, 'NEURÈENÝ' ) ;
#63 = VECTOR ( 'NONE', #58, 1000.000000000000000 ) ;
#64 = APPROVAL_DATE_TIME ( #207, #62 ) ;
#65 = ORIENTED_EDGE ( 'NONE', *, *, #123, .F. ) ;
#66 = VERTEX_POINT ( 'NONE', #69 ) ;
#67 = DESIGN_CONTEXT ( 'detailed design', #43, 'design' ) ;
#68 = CARTESIAN_POINT ( 'NONE',  ( -12.50000000000000000, 7.531577814756219100E-016, 6.149999999999997700 ) ) ;
#69 = CARTESIAN_POINT ( 'NONE',  ( -12.50000000000000000, 7.531577814756219100E-016, 6.149999999999997700 ) ) ;
#70 = ORIENTED_EDGE ( 'NONE', *, *, #28, .F. ) ;
#71 = FACE_OUTER_BOUND ( 'NONE', #85, .T. ) ;
#72 = CARTESIAN_POINT ( 'NONE',  ( -7.500000000000001800, -9.184850993605147900E-016, 0.0000000000000000000 ) ) ;
#73 = PRODUCT ( 'A_0221-012', 'A_0221-012', '', ( #25 ) ) ;
#74 = AXIS2_PLACEMENT_3D ( 'NONE', #93, #132, #21 ) ;
#75 = LOCAL_TIME ( 6, 53, 32.00000000000000000, #252 ) ;
#76 = ORIENTED_EDGE ( 'NONE', *, *, #239, .T. ) ;
#77 = CARTESIAN_POINT ( 'NONE',  ( -7.500000000000001800, -9.184850993605147900E-016, 0.0000000000000000000 ) ) ;
#78 = DIRECTION ( 'NONE',  ( -1.499759782661857600E-032, 1.224646799147353200E-016, 1.000000000000000000 ) ) ;
#79 = CC_DESIGN_APPROVAL ( #62, ( #32 ) ) ;
#80 = APPROVAL_ROLE ( '' ) ;
#81 = MANIFOLD_SOLID_BREP ( 'O12.2 (12.2) prùmìr díry1', #227 ) ;
#82 = DIRECTION ( 'NONE',  ( 1.000000000000000000, 0.0000000000000000000, 0.0000000000000000000 ) ) ;
#83 = ADVANCED_FACE ( 'NONE', ( #96 ), #141, .F. ) ;
#84 = SECURITY_CLASSIFICATION_LEVEL ( 'unclassified' ) ;
#85 = EDGE_LOOP ( 'NONE', ( #248, #136, #217, #39 ) ) ;
#86 = COORDINATED_UNIVERSAL_TIME_OFFSET ( 1, 0, .AHEAD. ) ;
#87 = AXIS2_PLACEMENT_3D ( 'NONE', #169, #233, #255 ) ;
#88 = DATE_AND_TIME ( #230, #200 ) ;
#89 = CIRCLE ( 'NONE', #42, 10.00000000000000000 ) ;
#90 = DIRECTION ( 'NONE',  ( 0.5150380749100549300, 1.049727191138618100E-016, 0.8571673007021118900 ) ) ;
#91 = VERTEX_POINT ( 'NONE', #148 ) ;
#92 = DIRECTION ( 'NONE',  ( 0.0000000000000000000, 0.0000000000000000000, -1.000000000000000000 ) ) ;
#93 = CARTESIAN_POINT ( 'NONE',  ( -7.500000000000001800, -9.184850993605147900E-016, 0.0000000000000000000 ) ) ;
#94 = ORIENTED_EDGE ( 'NONE', *, *, #103, .F. ) ;
#95 = DIRECTION ( 'NONE',  ( -1.224646799147353200E-016, 1.000000000000000000, 0.0000000000000000000 ) ) ;
#96 = FACE_OUTER_BOUND ( 'NONE', #253, .T. ) ;
#97 = CARTESIAN_POINT ( 'NONE',  ( -12.50000000000000000, 0.0000000000000000000, -6.149999999999997700 ) ) ;
#98 = CIRCLE ( 'NONE', #187, 6.614378277661472800 ) ;
#99 = AXIS2_PLACEMENT_3D ( 'NONE', #72, #212, #31 ) ;
#100 = DIRECTION ( 'NONE',  ( 1.000000000000000000, 1.224646799147353200E-016, -0.0000000000000000000 ) ) ;
#101 = CC_DESIGN_DATE_AND_TIME_ASSIGNMENT ( #226, #203, ( #3 ) ) ;
#102 = APPROVAL_ROLE ( '' ) ;
#103 = EDGE_CURVE ( 'NONE', #191, #66, #170, .T. ) ;
#104 = CALENDAR_DATE ( 2019, 16, 3 ) ;
#105 = ORIENTED_EDGE ( 'NONE', *, *, #19, .F. ) ;
#106 = ADVANCED_BREP_SHAPE_REPRESENTATION ( 'A_0221-012', ( #81, #53 ), #23 ) ;
#107 = CC_DESIGN_PERSON_AND_ORGANIZATION_ASSIGNMENT ( #240, #178, ( #32 ) ) ;
#108 = CIRCLE ( 'NONE', #87, 6.149999999999999500 ) ;
#109 = CARTESIAN_POINT ( 'NONE',  ( 0.0000000000000000000, 0.0000000000000000000, 0.0000000000000000000 ) ) ;
#110 = CARTESIAN_POINT ( 'NONE',  ( -17.50000000000000000, -1.530808498934191300E-015, 0.0000000000000000000 ) ) ;
#111 = CARTESIAN_POINT ( 'NONE',  ( -6.123233995736829500E-018, 0.0000000000000000000, 0.0000000000000000000 ) ) ;
#112 = EDGE_CURVE ( 'NONE', #231, #191, #22, .T. ) ;
#113 = CARTESIAN_POINT ( 'NONE',  ( 0.0000000000000000000, 0.0000000000000000000, 0.0000000000000000000 ) ) ;
#114 = COORDINATED_UNIVERSAL_TIME_OFFSET ( 1, 0, .AHEAD. ) ;
#115 = CIRCLE ( 'NONE', #47, 6.149999999999999500 ) ;
#116 =( NAMED_UNIT ( * ) SI_UNIT ( $, .STERADIAN. ) SOLID_ANGLE_UNIT ( ) );
#117 = DIRECTION ( 'NONE',  ( 1.000000000000000000, -0.0000000000000000000, -0.0000000000000000000 ) ) ;
#118 = FACE_OUTER_BOUND ( 'NONE', #238, .T. ) ;
#119 = PERSON_AND_ORGANIZATION_ROLE ( 'design_owner' ) ;
#120 = CALENDAR_DATE ( 2019, 16, 3 ) ;
#121 = APPROVAL_ROLE ( '' ) ;
#122 = PERSON_AND_ORGANIZATION ( #236, #59 ) ;
#123 = EDGE_CURVE ( 'NONE', #56, #149, #89, .T. ) ;
#124 = ORIENTED_EDGE ( 'NONE', *, *, #123, .T. ) ;
#125 = PERSON_AND_ORGANIZATION ( #236, #59 ) ;
#126 = AXIS2_PLACEMENT_3D ( 'NONE', #109, #52, #1 ) ;
#127 = CARTESIAN_POINT ( 'NONE',  ( -12.50000000000000000, 0.0000000000000000000, 0.0000000000000000000 ) ) ;
#128 = PLANE ( 'NONE',  #176 ) ;
#129 = DIRECTION ( 'NONE',  ( 1.000000000000000000, -0.0000000000000000000, -0.0000000000000000000 ) ) ;
#130 = CARTESIAN_POINT ( 'NONE',  ( -12.50000000000000000, 0.0000000000000000000, 0.0000000000000000000 ) ) ;
#131 = PERSON_AND_ORGANIZATION ( #236, #59 ) ;
#132 = DIRECTION ( 'NONE',  ( 0.0000000000000000000, 0.0000000000000000000, 1.000000000000000000 ) ) ;
#133 = EDGE_CURVE ( 'NONE', #191, #180, #14, .T. ) ;
#134 =( LENGTH_UNIT ( ) NAMED_UNIT ( * ) SI_UNIT ( .MILLI., .METRE. ) );
#135 = SHAPE_DEFINITION_REPRESENTATION ( #49, #106 ) ;
#136 = ORIENTED_EDGE ( 'NONE', *, *, #250, .T. ) ;
#137 = ADVANCED_FACE ( 'NONE', ( #30 ), #198, .F. ) ;
#138 = AXIS2_PLACEMENT_3D ( 'NONE', #173, #216, #95 ) ;
#139 = PERSON_AND_ORGANIZATION_ROLE ( 'design_supplier' ) ;
#140 = EDGE_LOOP ( 'NONE', ( #35, #186 ) ) ;
#141 = CONICAL_SURFACE ( 'NONE', #222, 6.149999999999997700, 1.029744258676653600 ) ;
#142 = CC_DESIGN_DATE_AND_TIME_ASSIGNMENT ( #88, #157, ( #32 ) ) ;
#143 = ORIENTED_EDGE ( 'NONE', *, *, #206, .F. ) ;
#144 = ORIENTED_EDGE ( 'NONE', *, *, #112, .T. ) ;
#145 = DATE_AND_TIME ( #205, #29 ) ;
#146 = CIRCLE ( 'NONE', #150, 6.149999999999997700 ) ;
#147 = AXIS2_PLACEMENT_3D ( 'NONE', #18, #117, #55 ) ;
#148 = CARTESIAN_POINT ( 'NONE',  ( 8.673617379884035500E-016, 6.614378277661472800, 0.0000000000000000000 ) ) ;
#149 = VERTEX_POINT ( 'NONE', #221 ) ;
#150 = AXIS2_PLACEMENT_3D ( 'NONE', #215, #129, #92 ) ;
#151 = CARTESIAN_POINT ( 'NONE',  ( -6.123233995736829500E-018, 0.0000000000000000000, -6.149999999999999500 ) ) ;
#152 = CARTESIAN_POINT ( 'NONE',  ( 0.0000000000000000000, 7.531577814756220100E-016, 6.149999999999998600 ) ) ;
#153 = VECTOR ( 'NONE', #90, 1000.000000000000000 ) ;
#154 = CARTESIAN_POINT ( 'NONE',  ( -16.19529280701949900, -3.966702699474116800E-015, 0.0000000000000000000 ) ) ;
#155 = DIRECTION ( 'NONE',  ( 1.000000000000000000, 1.224646799147353200E-016, -0.0000000000000000000 ) ) ;
#156 = APPROVAL_STATUS ( 'not_yet_approved' ) ;
#157 = DATE_TIME_ROLE ( 'creation_date' ) ;
#158 = FACE_BOUND ( 'NONE', #60, .T. ) ;
#159 = APPLICATION_PROTOCOL_DEFINITION ( 'international standard', 'config_control_design', 1994, #43 ) ;
#160 = ADVANCED_FACE ( 'NONE', ( #158, #242 ), #128, .T. ) ;
#161 = ORIENTED_EDGE ( 'NONE', *, *, #250, .F. ) ;
#162 = EDGE_CURVE ( 'NONE', #91, #149, #228, .T. ) ;
#163 = PRODUCT_RELATED_PRODUCT_CATEGORY ( 'detail', '', ( #73 ) ) ;
#164 = CALENDAR_DATE ( 2019, 16, 3 ) ;
#165 = EDGE_LOOP ( 'NONE', ( #209, #144, #20 ) ) ;
#166 = LOCAL_TIME ( 6, 53, 32.00000000000000000, #114 ) ;
#167 = DIRECTION ( 'NONE',  ( -0.0000000000000000000, 0.0000000000000000000, -1.000000000000000000 ) ) ;
#168 = ORIENTED_EDGE ( 'NONE', *, *, #162, .F. ) ;
#169 = CARTESIAN_POINT ( 'NONE',  ( -6.123233995736829500E-018, 0.0000000000000000000, 0.0000000000000000000 ) ) ;
#170 = CIRCLE ( 'NONE', #147, 6.149999999999997700 ) ;
#171 = CARTESIAN_POINT ( 'NONE',  ( -12.50000000000000000, 0.0000000000000000000, -6.149999999999997700 ) ) ;
#172 = EDGE_LOOP ( 'NONE', ( #65, #219, #143 ) ) ;
#173 = CARTESIAN_POINT ( 'NONE',  ( 1.677389456597194000E-015, 2.054209628945271700E-031, 0.0000000000000000000 ) ) ;
#174 = CARTESIAN_POINT ( 'NONE',  ( 0.0000000000000000000, 0.0000000000000000000, 0.0000000000000000000 ) ) ;
#175 = SPHERICAL_SURFACE ( 'NONE', #99, 10.00000000000000000 ) ;
#176 = AXIS2_PLACEMENT_3D ( 'NONE', #15, #100, #8 ) ;
#177 = APPROVAL_DATE_TIME ( #145, #208 ) ;
#178 = PERSON_AND_ORGANIZATION_ROLE ( 'creator' ) ;
#179 = AXIS2_PLACEMENT_3D ( 'NONE', #189, #167, #232 ) ;
#180 = VERTEX_POINT ( 'NONE', #151 ) ;
#181 = CC_DESIGN_PERSON_AND_ORGANIZATION_ASSIGNMENT ( #48, #119, ( #73 ) ) ;
#182 = LOCAL_TIME ( 6, 53, 32.00000000000000000, #86 ) ;
#183 = FACE_OUTER_BOUND ( 'NONE', #4, .T. ) ;
#184 = DIRECTION ( 'NONE',  ( 1.000000000000000000, -0.0000000000000000000, -0.0000000000000000000 ) ) ;
#185 = PERSON_AND_ORGANIZATION ( #236, #59 ) ;
#186 = ORIENTED_EDGE ( 'NONE', *, *, #206, .T. ) ;
#187 = AXIS2_PLACEMENT_3D ( 'NONE', #241, #155, #36 ) ;
#188 = DIRECTION ( 'NONE',  ( 0.0000000000000000000, 0.0000000000000000000, -1.000000000000000000 ) ) ;
#189 = CARTESIAN_POINT ( 'NONE',  ( -7.500000000000001800, -9.184850993605147900E-016, 0.0000000000000000000 ) ) ;
#190 = PERSON_AND_ORGANIZATION ( #236, #59 ) ;
#191 = VERTEX_POINT ( 'NONE', #171 ) ;
#192 = APPLICATION_PROTOCOL_DEFINITION ( 'international standard', 'config_control_design', 1994, #54 ) ;
#193 = AXIS2_PLACEMENT_3D ( 'NONE', #130, #38, #220 ) ;
#194 = DIRECTION ( 'NONE',  ( 0.5150380749100549300, 0.0000000000000000000, -0.8571673007021118900 ) ) ;
#195 = CIRCLE ( 'NONE', #179, 10.00000000000000000 ) ;
#196 = PERSON_AND_ORGANIZATION ( #236, #59 ) ;
#197 = DIRECTION ( 'NONE',  ( 1.000000000000000000, -0.0000000000000000000, -0.0000000000000000000 ) ) ;
#198 = CONICAL_SURFACE ( 'NONE', #193, 6.149999999999997700, 1.029744258676653600 ) ;
#199 = CYLINDRICAL_SURFACE ( 'NONE', #126, 6.149999999999998600 ) ;
#200 = LOCAL_TIME ( 6, 53, 32.00000000000000000, #37 ) ;
#201 = PRODUCT_DEFINITION_FORMATION_WITH_SPECIFIED_SOURCE ( 'LIBOVOLNÝ', '', #73, .NOT_KNOWN. ) ;
#202 = PERSON_AND_ORGANIZATION_ROLE ( 'classification_officer' ) ;
#203 = DATE_TIME_ROLE ( 'classification_date' ) ;
#204 = ADVANCED_FACE ( 'NONE', ( #118 ), #225, .T. ) ;
#205 = CALENDAR_DATE ( 2019, 16, 3 ) ;
#206 = EDGE_CURVE ( 'NONE', #149, #91, #98, .T. ) ;
#207 = DATE_AND_TIME ( #104, #166 ) ;
#208 = APPROVAL ( #156, 'NEURÈENÝ' ) ;
#209 = ORIENTED_EDGE ( 'NONE', *, *, #11, .F. ) ;
#210 = LINE ( 'NONE', #68, #153 ) ;
#211 = DIRECTION ( 'NONE',  ( 0.0000000000000000000, 0.0000000000000000000, -1.000000000000000000 ) ) ;
#212 = DIRECTION ( 'NONE',  ( 0.0000000000000000000, 0.0000000000000000000, 1.000000000000000000 ) ) ;
#213 = VECTOR ( 'NONE', #194, 1000.000000000000000 ) ;
#214 = APPROVAL ( #223, 'NEURÈENÝ' ) ;
#215 = CARTESIAN_POINT ( 'NONE',  ( -12.50000000000000000, 0.0000000000000000000, 0.0000000000000000000 ) ) ;
#216 = DIRECTION ( 'NONE',  ( 1.000000000000000000, 1.224646799147353200E-016, -0.0000000000000000000 ) ) ;
#217 = ORIENTED_EDGE ( 'NONE', *, *, #13, .T. ) ;
#218 = CC_DESIGN_SECURITY_CLASSIFICATION ( #3, ( #201 ) ) ;
#219 = ORIENTED_EDGE ( 'NONE', *, *, #28, .T. ) ;
#220 = DIRECTION ( 'NONE',  ( 0.0000000000000000000, 0.0000000000000000000, -1.000000000000000000 ) ) ;
#221 = CARTESIAN_POINT ( 'NONE',  ( 2.978432063579799300E-015, -6.614378277661472800, 8.100277186087906300E-016 ) ) ;
#222 = AXIS2_PLACEMENT_3D ( 'NONE', #127, #184, #211 ) ;
#223 = APPROVAL_STATUS ( 'not_yet_approved' ) ;
#224 = ORIENTED_EDGE ( 'NONE', *, *, #133, .T. ) ;
#225 = SPHERICAL_SURFACE ( 'NONE', #74, 10.00000000000000000 ) ;
#226 = DATE_AND_TIME ( #164, #182 ) ;
#227 = CLOSED_SHELL ( 'NONE', ( #245, #83, #204, #160, #24, #137, #61 ) ) ;
#228 = CIRCLE ( 'NONE', #138, 6.614378277661472800 ) ;
#229 = CC_DESIGN_APPROVAL ( #214, ( #201 ) ) ;
#230 = CALENDAR_DATE ( 2019, 16, 3 ) ;
#231 = VERTEX_POINT ( 'NONE', #154 ) ;
#232 = DIRECTION ( 'NONE',  ( -1.000000000000000000, 0.0000000000000000000, 0.0000000000000000000 ) ) ;
#233 = DIRECTION ( 'NONE',  ( 1.000000000000000000, -0.0000000000000000000, -0.0000000000000000000 ) ) ;
#234 = CARTESIAN_POINT ( 'NONE',  ( -6.123233995736829500E-018, 7.531577814756222100E-016, 6.150000000000000400 ) ) ;
#235 = CYLINDRICAL_SURFACE ( 'NONE', #9, 6.149999999999998600 ) ;
#236 = PERSON ( 'NEURÈENÝ', 'NEURÈENÝ', 'NEURÈENÝ', ('NEURÈENÝ'), ('NEURÈENÝ'), ('NEURÈENÝ') ) ;
#237 = DIRECTION ( 'NONE',  ( 0.0000000000000000000, 0.0000000000000000000, -1.000000000000000000 ) ) ;
#238 = EDGE_LOOP ( 'NONE', ( #70, #124, #168 ) ) ;
#239 = EDGE_CURVE ( 'NONE', #66, #191, #146, .T. ) ;
#240 = PERSON_AND_ORGANIZATION ( #236, #59 ) ;
#241 = CARTESIAN_POINT ( 'NONE',  ( 1.677389456597194000E-015, 2.054209628945271700E-031, 0.0000000000000000000 ) ) ;
#242 = FACE_OUTER_BOUND ( 'NONE', #140, .T. ) ;
#243 = CC_DESIGN_APPROVAL ( #208, ( #3 ) ) ;
#244 = CC_DESIGN_PERSON_AND_ORGANIZATION_ASSIGNMENT ( #185, #10, ( #201 ) ) ;
#245 = ADVANCED_FACE ( 'NONE', ( #71 ), #235, .F. ) ;
#246 = DIRECTION ( 'NONE',  ( 0.0000000000000000000, 0.0000000000000000000, 1.000000000000000000 ) ) ;
#247 = FACE_OUTER_BOUND ( 'NONE', #172, .T. ) ;
#248 = ORIENTED_EDGE ( 'NONE', *, *, #239, .F. ) ;
#249 = APPROVAL_DATE_TIME ( #16, #214 ) ;
#250 = EDGE_CURVE ( 'NONE', #66, #12, #41, .T. ) ;
#251 = APPROVAL_PERSON_ORGANIZATION ( #196, #62, #121 ) ;
#252 = COORDINATED_UNIVERSAL_TIME_OFFSET ( 1, 0, .AHEAD. ) ;
#253 = EDGE_LOOP ( 'NONE', ( #27, #17, #76 ) ) ;
#254 = VECTOR ( 'NONE', #33, 1000.000000000000000 ) ;
#255 = DIRECTION ( 'NONE',  ( 0.0000000000000000000, 0.0000000000000000000, -1.000000000000000000 ) ) ;
ENDSEC;
END-ISO-10303-21;
