ISO-10303-21;
HEADER;
FILE_DESCRIPTION (( 'STEP AP203' ),
    '1' );
FILE_NAME ('A_1305-242.STEP',
    '2019-01-09T08:01:52',
    ( '' ),
    ( '' ),
    'SwSTEP 2.0',
    'SolidWorks 2018',
    '' );
FILE_SCHEMA (( 'CONFIG_CONTROL_DESIGN' ));
ENDSEC;

DATA;
#1 = UNCERTAINTY_MEASURE_WITH_UNIT (LENGTH_MEASURE( 1.000000000000000082E-05 ), #250, 'distance_accuracy_value', 'NONE');
#2 = AXIS2_PLACEMENT_3D ( 'NONE', #70, #30, #206 ) ;
#3 = DIRECTION ( 'NONE',  ( -0.0000000000000000000, -0.0000000000000000000, -1.000000000000000000 ) ) ;
#4 = PRODUCT_DEFINITION_FORMATION_WITH_SPECIFIED_SOURCE ( 'ANY', '', #231, .NOT_KNOWN. ) ;
#5 = FACE_BOUND ( 'NONE', #164, .T. ) ;
#6 = CARTESIAN_POINT ( 'NONE',  ( 0.0000000000000000000, 48.00000000000000000, 0.0000000000000000000 ) ) ;
#7 = VERTEX_POINT ( 'NONE', #139 ) ;
#8 = CARTESIAN_POINT ( 'NONE',  ( -48.00000000000000000, 2.939152317953647894E-15, 0.0000000000000000000 ) ) ;
#9 = DIRECTION ( 'NONE',  ( -0.0000000000000000000, -0.0000000000000000000, -1.000000000000000000 ) ) ;
#10 = EDGE_CURVE ( 'NONE', #196, #160, #42, .T. ) ;
#11 = PERSON_AND_ORGANIZATION ( #129, #100 ) ;
#12 = DIRECTION ( 'NONE',  ( 0.0000000000000000000, 0.0000000000000000000, -1.000000000000000000 ) ) ;
#13 =( NAMED_UNIT ( * ) PLANE_ANGLE_UNIT ( ) SI_UNIT ( $, .RADIAN. ) );
#14 = CC_DESIGN_APPROVAL ( #110, ( #4 ) ) ;
#15 = ORIENTED_EDGE ( 'NONE', *, *, #76, .F. ) ;
#16 = LOCAL_TIME ( 9, 1, 52.00000000000000000, #20 ) ;
#17 = ORIENTED_EDGE ( 'NONE', *, *, #237, .F. ) ;
#18 = FACE_OUTER_BOUND ( 'NONE', #64, .T. ) ;
#19 = DIRECTION ( 'NONE',  ( -0.0000000000000000000, -0.0000000000000000000, -1.000000000000000000 ) ) ;
#20 = COORDINATED_UNIVERSAL_TIME_OFFSET ( 1, 0, .AHEAD. ) ;
#21 = CARTESIAN_POINT ( 'NONE',  ( 0.0000000000000000000, 28.80000000000000426, 2.351321854362917684E-15 ) ) ;
#22 = PERSON_AND_ORGANIZATION ( #129, #100 ) ;
#23 = DIRECTION ( 'NONE',  ( 6.123233995736766036E-17, 1.000000000000000000, 0.0000000000000000000 ) ) ;
#24 = CIRCLE ( 'NONE', #197, 21.19999999999999929 ) ;
#25 = DIRECTION ( 'NONE',  ( -1.000000000000000000, 0.0000000000000000000, 0.0000000000000000000 ) ) ;
#26 = PRODUCT_DEFINITION ( 'UNKNOWN', '', #4, #87 ) ;
#27 = EDGE_LOOP ( 'NONE', ( #217, #205, #97, #191 ) ) ;
#28 = CC_DESIGN_DATE_AND_TIME_ASSIGNMENT ( #125, #53, ( #55 ) ) ;
#29 = ADVANCED_FACE ( 'NONE', ( #35 ), #243, .T. ) ;
#30 = DIRECTION ( 'NONE',  ( 1.000000000000000000, 0.0000000000000000000, 0.0000000000000000000 ) ) ;
#31 = ADVANCED_FACE ( 'NONE', ( #194, #140 ), #118, .F. ) ;
#32 = CARTESIAN_POINT ( 'NONE',  ( 0.0000000000000000000, 0.0000000000000000000, 2.596251214192388770E-15 ) ) ;
#33 = APPROVAL_ROLE ( '' ) ;
#34 = APPLICATION_CONTEXT ( 'configuration controlled 3d designs of mechanical parts and assemblies' ) ;
#35 = FACE_OUTER_BOUND ( 'NONE', #239, .T. ) ;
#36 = CALENDAR_DATE ( 2019, 9, 1 ) ;
#37 = EDGE_CURVE ( 'NONE', #224, #7, #60, .T. ) ;
#38 = CIRCLE ( 'NONE', #232, 21.19999999999999929 ) ;
#39 = CC_DESIGN_PERSON_AND_ORGANIZATION_ASSIGNMENT ( #116, #73, ( #26 ) ) ;
#40 = CC_DESIGN_PERSON_AND_ORGANIZATION_ASSIGNMENT ( #11, #93, ( #4 ) ) ;
#41 = DIRECTION ( 'NONE',  ( 0.0000000000000000000, 0.0000000000000000000, -1.000000000000000000 ) ) ;
#42 = CIRCLE ( 'NONE', #103, 21.19999999999999929 ) ;
#43 = APPROVAL_PERSON_ORGANIZATION ( #252, #63, #33 ) ;
#44 = TOROIDAL_SURFACE ( 'NONE', #133, 48.00000000000000000, 19.19999999999999929 ) ;
#45 = ORIENTED_EDGE ( 'NONE', *, *, #168, .F. ) ;
#46 = DIRECTION ( 'NONE',  ( 0.0000000000000000000, 0.0000000000000000000, -1.000000000000000000 ) ) ;
#47 = CARTESIAN_POINT ( 'NONE',  ( -67.20000000000000284, 4.114813245135106342E-15, 0.0000000000000000000 ) ) ;
#48 = EDGE_LOOP ( 'NONE', ( #17, #183, #145, #170 ) ) ;
#49 = DIRECTION ( 'NONE',  ( -1.000000000000000000, 0.0000000000000000000, 0.0000000000000000000 ) ) ;
#50 = CARTESIAN_POINT ( 'NONE',  ( 0.0000000000000000000, 0.0000000000000000000, 0.0000000000000000000 ) ) ;
#51 = CARTESIAN_POINT ( 'NONE',  ( 0.0000000000000000000, 0.0000000000000000000, 0.0000000000000000000 ) ) ;
#52 = AXIS2_PLACEMENT_3D ( 'NONE', #50, #83, #49 ) ;
#53 = DATE_TIME_ROLE ( 'classification_date' ) ;
#54 = APPROVAL_ROLE ( '' ) ;
#55 = SECURITY_CLASSIFICATION ( '', '', #91 ) ;
#56 = ORIENTED_EDGE ( 'NONE', *, *, #76, .T. ) ;
#57 = FACE_OUTER_BOUND ( 'NONE', #188, .T. ) ;
#58 = LOCAL_TIME ( 9, 1, 52.00000000000000000, #67 ) ;
#59 = DIRECTION ( 'NONE',  ( 1.000000000000000000, 0.0000000000000000000, 0.0000000000000000000 ) ) ;
#60 = CIRCLE ( 'NONE', #241, 19.19999999999999929 ) ;
#61 = CARTESIAN_POINT ( 'NONE',  ( 0.0000000000000000000, 0.0000000000000000000, 0.0000000000000000000 ) ) ;
#62 = APPROVAL_DATE_TIME ( #228, #110 ) ;
#63 = APPROVAL ( #210, 'UNSPECIFIED' ) ;
#64 = EDGE_LOOP ( 'NONE', ( #107, #148 ) ) ;
#65 = APPROVAL ( #111, 'UNSPECIFIED' ) ;
#66 = DIRECTION ( 'NONE',  ( 0.0000000000000000000, 0.0000000000000000000, 1.000000000000000000 ) ) ;
#67 = COORDINATED_UNIVERSAL_TIME_OFFSET ( 1, 0, .AHEAD. ) ;
#68 = DIRECTION ( 'NONE',  ( 1.000000000000000000, 0.0000000000000000000, 0.0000000000000000000 ) ) ;
#69 = LOCAL_TIME ( 9, 1, 52.00000000000000000, #187 ) ;
#70 = CARTESIAN_POINT ( 'NONE',  ( 0.0000000000000000000, 48.00000000000000000, 0.0000000000000000000 ) ) ;
#71 = CC_DESIGN_PERSON_AND_ORGANIZATION_ASSIGNMENT ( #177, #134, ( #4 ) ) ;
#72 = CIRCLE ( 'NONE', #144, 26.80000000000000071 ) ;
#73 = PERSON_AND_ORGANIZATION_ROLE ( 'creator' ) ;
#74 = PERSON_AND_ORGANIZATION ( #129, #100 ) ;
#75 = COORDINATED_UNIVERSAL_TIME_OFFSET ( 1, 0, .AHEAD. ) ;
#76 = EDGE_CURVE ( 'NONE', #159, #112, #99, .T. ) ;
#77 = AXIS2_PLACEMENT_3D ( 'NONE', #8, #221, #161 ) ;
#78 = CC_DESIGN_APPROVAL ( #65, ( #55 ) ) ;
#79 = CARTESIAN_POINT ( 'NONE',  ( -69.20000000000000284, 4.237277925049843068E-15, 0.0000000000000000000 ) ) ;
#80 = DIRECTION ( 'NONE',  ( -1.000000000000000000, 0.0000000000000000000, 0.0000000000000000000 ) ) ;
#81 = ORIENTED_EDGE ( 'NONE', *, *, #223, .T. ) ;
#82 = DIRECTION ( 'NONE',  ( 1.000000000000000000, 0.0000000000000000000, 0.0000000000000000000 ) ) ;
#83 = DIRECTION ( 'NONE',  ( -0.0000000000000000000, -0.0000000000000000000, -1.000000000000000000 ) ) ;
#84 = FACE_OUTER_BOUND ( 'NONE', #27, .T. ) ;
#85 = CARTESIAN_POINT ( 'NONE',  ( 0.0000000000000000000, 26.80000000000000071, 2.596251214192388770E-15 ) ) ;
#86 = LOCAL_TIME ( 9, 1, 52.00000000000000000, #244 ) ;
#87 = DESIGN_CONTEXT ( 'detailed design', #155, 'design' ) ;
#88 = CIRCLE ( 'NONE', #121, 28.80000000000000426 ) ;
#89 = ORIENTED_EDGE ( 'NONE', *, *, #202, .F. ) ;
#90 = CARTESIAN_POINT ( 'NONE',  ( -48.00000000000000000, 2.939152317953647894E-15, 0.0000000000000000000 ) ) ;
#91 = SECURITY_CLASSIFICATION_LEVEL ( 'unclassified' ) ;
#92 = CC_DESIGN_DATE_AND_TIME_ASSIGNMENT ( #220, #212, ( #26 ) ) ;
#93 = PERSON_AND_ORGANIZATION_ROLE ( 'design_supplier' ) ;
#94 = PERSON_AND_ORGANIZATION_ROLE ( 'classification_officer' ) ;
#95 = CC_DESIGN_SECURITY_CLASSIFICATION ( #55, ( #4 ) ) ;
#96 = ORIENTED_EDGE ( 'NONE', *, *, #143, .F. ) ;
#97 = ORIENTED_EDGE ( 'NONE', *, *, #143, .T. ) ;
#98 = ADVANCED_FACE ( 'NONE', ( #84 ), #175, .T. ) ;
#99 = CIRCLE ( 'NONE', #117, 19.19999999999999929 ) ;
#100 = ORGANIZATION ( 'UNSPECIFIED', 'UNSPECIFIED', '' ) ;
#101 = CIRCLE ( 'NONE', #162, 67.20000000000000284 ) ;
#102 = PLANE ( 'NONE',  #109 ) ;
#103 = AXIS2_PLACEMENT_3D ( 'NONE', #238, #23, #41 ) ;
#104 = PRODUCT_RELATED_PRODUCT_CATEGORY ( 'detail', '', ( #231 ) ) ;
#105 = ORIENTED_EDGE ( 'NONE', *, *, #10, .T. ) ;
#106 = CARTESIAN_POINT ( 'NONE',  ( 0.0000000000000000000, 67.20000000000000284, 0.0000000000000000000 ) ) ;
#107 = ORIENTED_EDGE ( 'NONE', *, *, #202, .T. ) ;
#108 = DIRECTION ( 'NONE',  ( 1.000000000000000000, 0.0000000000000000000, 0.0000000000000000000 ) ) ;
#109 = AXIS2_PLACEMENT_3D ( 'NONE', #146, #108, #12 ) ;
#110 = APPROVAL ( #172, 'UNSPECIFIED' ) ;
#111 = APPROVAL_STATUS ( 'not_yet_approved' ) ;
#112 = VERTEX_POINT ( 'NONE', #21 ) ;
#113 = CIRCLE ( 'NONE', #192, 19.19999999999999929 ) ;
#114 = APPROVAL_PERSON_ORGANIZATION ( #74, #65, #54 ) ;
#115 = LOCAL_TIME ( 9, 1, 52.00000000000000000, #75 ) ;
#116 = PERSON_AND_ORGANIZATION ( #129, #100 ) ;
#117 = AXIS2_PLACEMENT_3D ( 'NONE', #6, #59, #198 ) ;
#118 = PLANE ( 'NONE',  #77 ) ;
#119 = CALENDAR_DATE ( 2019, 9, 1 ) ;
#120 = CALENDAR_DATE ( 2019, 9, 1 ) ;
#121 = AXIS2_PLACEMENT_3D ( 'NONE', #131, #9, #247 ) ;
#122 = CARTESIAN_POINT ( 'NONE',  ( -48.00000000000000000, 2.939152317953647894E-15, 0.0000000000000000000 ) ) ;
#123 = ADVANCED_BREP_SHAPE_REPRESENTATION ( 'A_1305-242', ( #216, #201 ), #179 ) ;
#124 = ORIENTED_EDGE ( 'NONE', *, *, #209, .F. ) ;
#125 = DATE_AND_TIME ( #119, #58 ) ;
#126 = DIRECTION ( 'NONE',  ( 6.123233995736766036E-17, 1.000000000000000000, 0.0000000000000000000 ) ) ;
#127 = APPROVAL_PERSON_ORGANIZATION ( #22, #110, #251 ) ;
#128 = DIRECTION ( 'NONE',  ( 0.0000000000000000000, 0.0000000000000000000, -1.000000000000000000 ) ) ;
#129 = PERSON ( 'UNSPECIFIED', 'UNSPECIFIED', 'UNSPECIFIED', ('UNSPECIFIED'), ('UNSPECIFIED'), ('UNSPECIFIED') ) ;
#130 = ORIENTED_EDGE ( 'NONE', *, *, #37, .F. ) ;
#131 = CARTESIAN_POINT ( 'NONE',  ( 0.0000000000000000000, 0.0000000000000000000, 2.351321854362917684E-15 ) ) ;
#132 = PERSON_AND_ORGANIZATION_ROLE ( 'design_owner' ) ;
#133 = AXIS2_PLACEMENT_3D ( 'NONE', #166, #149, #229 ) ;
#134 = PERSON_AND_ORGANIZATION_ROLE ( 'creator' ) ;
#135 = DATE_AND_TIME ( #36, #86 ) ;
#136 = ORIENTED_EDGE ( 'NONE', *, *, #185, .T. ) ;
#137 = AXIS2_PLACEMENT_3D ( 'NONE', #61, #3, #80 ) ;
#138 = CARTESIAN_POINT ( 'NONE',  ( 0.0000000000000000000, 0.0000000000000000000, 0.0000000000000000000 ) ) ;
#139 = CARTESIAN_POINT ( 'NONE',  ( -28.80000000000000426, 1.763491390772188855E-15, 2.351321854362917684E-15 ) ) ;
#140 = FACE_OUTER_BOUND ( 'NONE', #246, .T. ) ;
#141 = PERSON_AND_ORGANIZATION ( #129, #100 ) ;
#142 = ORIENTED_EDGE ( 'NONE', *, *, #37, .T. ) ;
#143 = EDGE_CURVE ( 'NONE', #196, #200, #72, .T. ) ;
#144 = AXIS2_PLACEMENT_3D ( 'NONE', #32, #242, #204 ) ;
#145 = ORIENTED_EDGE ( 'NONE', *, *, #209, .T. ) ;
#146 = CARTESIAN_POINT ( 'NONE',  ( 0.0000000000000000000, 48.00000000000000000, 0.0000000000000000000 ) ) ;
#147 = FACE_OUTER_BOUND ( 'NONE', #48, .T. ) ;
#148 = ORIENTED_EDGE ( 'NONE', *, *, #189, .T. ) ;
#149 = DIRECTION ( 'NONE',  ( -0.0000000000000000000, -0.0000000000000000000, -1.000000000000000000 ) ) ;
#150 = DIRECTION ( 'NONE',  ( -0.0000000000000000000, -0.0000000000000000000, -1.000000000000000000 ) ) ;
#151 = AXIS2_PLACEMENT_3D ( 'NONE', #193, #150, #25 ) ;
#152 = DIRECTION ( 'NONE',  ( 0.0000000000000000000, 0.0000000000000000000, -1.000000000000000000 ) ) ;
#153 = MECHANICAL_CONTEXT ( 'NONE', #34, 'mechanical' ) ;
#154 =( NAMED_UNIT ( * ) SI_UNIT ( $, .STERADIAN. ) SOLID_ANGLE_UNIT ( ) );
#155 = APPLICATION_CONTEXT ( 'configuration controlled 3d designs of mechanical parts and assemblies' ) ;
#156 = CIRCLE ( 'NONE', #190, 19.19999999999999929 ) ;
#157 = ORIENTED_EDGE ( 'NONE', *, *, #10, .F. ) ;
#158 = CC_DESIGN_PERSON_AND_ORGANIZATION_ASSIGNMENT ( #141, #132, ( #231 ) ) ;
#159 = VERTEX_POINT ( 'NONE', #106 ) ;
#160 = VERTEX_POINT ( 'NONE', #79 ) ;
#161 = DIRECTION ( 'NONE',  ( 0.0000000000000000000, 0.0000000000000000000, -1.000000000000000000 ) ) ;
#162 = AXIS2_PLACEMENT_3D ( 'NONE', #51, #163, #167 ) ;
#163 = DIRECTION ( 'NONE',  ( -0.0000000000000000000, -0.0000000000000000000, -1.000000000000000000 ) ) ;
#164 = EDGE_LOOP ( 'NONE', ( #45, #15 ) ) ;
#165 = DATE_AND_TIME ( #219, #16 ) ;
#166 = CARTESIAN_POINT ( 'NONE',  ( 0.0000000000000000000, 0.0000000000000000000, 0.0000000000000000000 ) ) ;
#167 = DIRECTION ( 'NONE',  ( -1.000000000000000000, 0.0000000000000000000, 0.0000000000000000000 ) ) ;
#168 = EDGE_CURVE ( 'NONE', #112, #159, #156, .T. ) ;
#169 = APPROVAL_DATE_TIME ( #135, #63 ) ;
#170 = ORIENTED_EDGE ( 'NONE', *, *, #168, .T. ) ;
#171 = CARTESIAN_POINT ( 'NONE',  ( -26.80000000000000071, 1.641026710857453312E-15, 2.596251214192388770E-15 ) ) ;
#172 = APPROVAL_STATUS ( 'not_yet_approved' ) ;
#173 = AXIS2_PLACEMENT_3D ( 'NONE', #138, #19, #199 ) ;
#174 = DIRECTION ( 'NONE',  ( 1.000000000000000000, 0.0000000000000000000, 0.0000000000000000000 ) ) ;
#175 = TOROIDAL_SURFACE ( 'NONE', #173, 48.00000000000000000, 21.19999999999999929 ) ;
#176 = SHAPE_DEFINITION_REPRESENTATION ( #180, #123 ) ;
#177 = PERSON_AND_ORGANIZATION ( #129, #100 ) ;
#178 = ADVANCED_FACE ( 'NONE', ( #5, #18 ), #102, .T. ) ;
#179 =( GEOMETRIC_REPRESENTATION_CONTEXT ( 3 ) GLOBAL_UNCERTAINTY_ASSIGNED_CONTEXT ( ( #1 ) ) GLOBAL_UNIT_ASSIGNED_CONTEXT ( ( #250, #13, #154 ) ) REPRESENTATION_CONTEXT ( 'NONE', 'WORKASPACE' ) );
#180 = PRODUCT_DEFINITION_SHAPE ( 'NONE', 'NONE',  #26 ) ;
#181 = CIRCLE ( 'NONE', #2, 21.19999999999999929 ) ;
#182 = VERTEX_POINT ( 'NONE', #184 ) ;
#183 = ORIENTED_EDGE ( 'NONE', *, *, #185, .F. ) ;
#184 = CARTESIAN_POINT ( 'NONE',  ( 0.0000000000000000000, 69.20000000000000284, 0.0000000000000000000 ) ) ;
#185 = EDGE_CURVE ( 'NONE', #7, #224, #113, .T. ) ;
#186 = CARTESIAN_POINT ( 'NONE',  ( -48.00000000000000000, 2.939152317953647894E-15, 0.0000000000000000000 ) ) ;
#187 = COORDINATED_UNIVERSAL_TIME_OFFSET ( 1, 0, .AHEAD. ) ;
#188 = EDGE_LOOP ( 'NONE', ( #130, #203, #56, #124 ) ) ;
#189 = EDGE_CURVE ( 'NONE', #182, #200, #24, .T. ) ;
#190 = AXIS2_PLACEMENT_3D ( 'NONE', #222, #68, #128 ) ;
#191 = ORIENTED_EDGE ( 'NONE', *, *, #189, .F. ) ;
#192 = AXIS2_PLACEMENT_3D ( 'NONE', #90, #230, #240 ) ;
#193 = CARTESIAN_POINT ( 'NONE',  ( 0.0000000000000000000, 0.0000000000000000000, 0.0000000000000000000 ) ) ;
#194 = FACE_BOUND ( 'NONE', #253, .T. ) ;
#195 = TOROIDAL_SURFACE ( 'NONE', #151, 48.00000000000000000, 19.19999999999999929 ) ;
#196 = VERTEX_POINT ( 'NONE', #171 ) ;
#197 = AXIS2_PLACEMENT_3D ( 'NONE', #248, #82, #152 ) ;
#198 = DIRECTION ( 'NONE',  ( 0.0000000000000000000, 0.0000000000000000000, -1.000000000000000000 ) ) ;
#199 = DIRECTION ( 'NONE',  ( -1.000000000000000000, 0.0000000000000000000, 0.0000000000000000000 ) ) ;
#200 = VERTEX_POINT ( 'NONE', #85 ) ;
#201 = AXIS2_PLACEMENT_3D ( 'NONE', #207, #66, #174 ) ;
#202 = EDGE_CURVE ( 'NONE', #200, #182, #181, .T. ) ;
#203 = ORIENTED_EDGE ( 'NONE', *, *, #237, .T. ) ;
#204 = DIRECTION ( 'NONE',  ( -1.000000000000000000, 0.0000000000000000000, 0.0000000000000000000 ) ) ;
#205 = ORIENTED_EDGE ( 'NONE', *, *, #249, .T. ) ;
#206 = DIRECTION ( 'NONE',  ( 0.0000000000000000000, 0.0000000000000000000, -1.000000000000000000 ) ) ;
#207 = CARTESIAN_POINT ( 'NONE',  ( 0.0000000000000000000, 0.0000000000000000000, 0.0000000000000000000 ) ) ;
#208 = APPLICATION_PROTOCOL_DEFINITION ( 'international standard', 'config_control_design', 1994, #34 ) ;
#209 = EDGE_CURVE ( 'NONE', #7, #112, #88, .T. ) ;
#210 = APPROVAL_STATUS ( 'not_yet_approved' ) ;
#211 = ADVANCED_FACE ( 'NONE', ( #57 ), #44, .F. ) ;
#212 = DATE_TIME_ROLE ( 'creation_date' ) ;
#213 = ORIENTED_EDGE ( 'NONE', *, *, #249, .F. ) ;
#214 = PERSON_AND_ORGANIZATION ( #129, #100 ) ;
#215 = ADVANCED_FACE ( 'NONE', ( #147 ), #195, .F. ) ;
#216 = MANIFOLD_SOLID_BREP ( 'Táhnout po køivce1', #233 ) ;
#217 = ORIENTED_EDGE ( 'NONE', *, *, #223, .F. ) ;
#218 = DIRECTION ( 'NONE',  ( 6.123233995736766036E-17, 1.000000000000000000, 0.0000000000000000000 ) ) ;
#219 = CALENDAR_DATE ( 2019, 9, 1 ) ;
#220 = DATE_AND_TIME ( #236, #69 ) ;
#221 = DIRECTION ( 'NONE',  ( 6.123233995736766036E-17, 1.000000000000000000, 0.0000000000000000000 ) ) ;
#222 = CARTESIAN_POINT ( 'NONE',  ( 0.0000000000000000000, 48.00000000000000000, 0.0000000000000000000 ) ) ;
#223 = EDGE_CURVE ( 'NONE', #160, #182, #245, .T. ) ;
#224 = VERTEX_POINT ( 'NONE', #47 ) ;
#225 = CC_DESIGN_APPROVAL ( #63, ( #26 ) ) ;
#226 = APPROVAL_DATE_TIME ( #165, #65 ) ;
#227 = DIRECTION ( 'NONE',  ( 0.0000000000000000000, 0.0000000000000000000, -1.000000000000000000 ) ) ;
#228 = DATE_AND_TIME ( #120, #115 ) ;
#229 = DIRECTION ( 'NONE',  ( -1.000000000000000000, 0.0000000000000000000, 0.0000000000000000000 ) ) ;
#230 = DIRECTION ( 'NONE',  ( 6.123233995736766036E-17, 1.000000000000000000, 0.0000000000000000000 ) ) ;
#231 = PRODUCT ( 'A_1305-242', 'A_1305-242', '', ( #153 ) ) ;
#232 = AXIS2_PLACEMENT_3D ( 'NONE', #122, #126, #227 ) ;
#233 = CLOSED_SHELL ( 'NONE', ( #29, #211, #215, #98, #31, #178 ) ) ;
#234 = CC_DESIGN_PERSON_AND_ORGANIZATION_ASSIGNMENT ( #214, #94, ( #55 ) ) ;
#235 = APPLICATION_PROTOCOL_DEFINITION ( 'international standard', 'config_control_design', 1994, #155 ) ;
#236 = CALENDAR_DATE ( 2019, 9, 1 ) ;
#237 = EDGE_CURVE ( 'NONE', #224, #159, #101, .T. ) ;
#238 = CARTESIAN_POINT ( 'NONE',  ( -48.00000000000000000, 2.939152317953647894E-15, 0.0000000000000000000 ) ) ;
#239 = EDGE_LOOP ( 'NONE', ( #105, #81, #89, #96 ) ) ;
#240 = DIRECTION ( 'NONE',  ( 0.0000000000000000000, 0.0000000000000000000, -1.000000000000000000 ) ) ;
#241 = AXIS2_PLACEMENT_3D ( 'NONE', #186, #218, #46 ) ;
#242 = DIRECTION ( 'NONE',  ( -0.0000000000000000000, -0.0000000000000000000, -1.000000000000000000 ) ) ;
#243 = TOROIDAL_SURFACE ( 'NONE', #137, 48.00000000000000000, 21.19999999999999929 ) ;
#244 = COORDINATED_UNIVERSAL_TIME_OFFSET ( 1, 0, .AHEAD. ) ;
#245 = CIRCLE ( 'NONE', #52, 69.20000000000000284 ) ;
#246 = EDGE_LOOP ( 'NONE', ( #157, #213 ) ) ;
#247 = DIRECTION ( 'NONE',  ( -1.000000000000000000, 0.0000000000000000000, 0.0000000000000000000 ) ) ;
#248 = CARTESIAN_POINT ( 'NONE',  ( 0.0000000000000000000, 48.00000000000000000, 0.0000000000000000000 ) ) ;
#249 = EDGE_CURVE ( 'NONE', #160, #196, #38, .T. ) ;
#250 =( LENGTH_UNIT ( ) NAMED_UNIT ( * ) SI_UNIT ( .MILLI., .METRE. ) );
#251 = APPROVAL_ROLE ( '' ) ;
#252 = PERSON_AND_ORGANIZATION ( #129, #100 ) ;
#253 = EDGE_LOOP ( 'NONE', ( #136, #142 ) ) ;
ENDSEC;
END-ISO-10303-21;
