ISO-10303-21;
HEADER;
FILE_DESCRIPTION (( 'STEP AP203' ),
    '1' );
FILE_NAME ('A_1950-100.STEP',
    '2019-05-06T05:51:34',
    ( '' ),
    ( '' ),
    'SwSTEP 2.0',
    'SolidWorks 2013',
    '' );
FILE_SCHEMA (( 'CONFIG_CONTROL_DESIGN' ));
ENDSEC;

DATA;
#1 = PERSON_AND_ORGANIZATION ( #234, #44 ) ;
#2 = DIRECTION ( 'NONE',  ( 0.0000000000000000000, 1.000000000000000000, 0.0000000000000000000 ) ) ;
#3 = ORIENTED_EDGE ( 'NONE', *, *, #106, .T. ) ;
#4 = FACE_OUTER_BOUND ( 'NONE', #80, .T. ) ;
#5 = ADVANCED_FACE ( 'NONE', ( #131 ), #129, .T. ) ;
#6 = DIRECTION ( 'NONE',  ( 0.0000000000000000000, 1.000000000000000000, 0.0000000000000000000 ) ) ;
#7 = AXIS2_PLACEMENT_3D ( 'NONE', #350, #349, #111 ) ;
#8 = VERTEX_POINT ( 'NONE', #15 ) ;
#9 = CALENDAR_DATE ( 2019, 6, 5 ) ;
#10 = EDGE_CURVE ( 'NONE', #213, #116, #160, .T. ) ;
#11 = CARTESIAN_POINT ( 'NONE',  ( -36.00000000000000000, 0.0000000000000000000, -5.499999999999996400 ) ) ;
#12 = EDGE_LOOP ( 'NONE', ( #304, #138 ) ) ;
#13 = FACE_OUTER_BOUND ( 'NONE', #211, .T. ) ;
#14 = DIRECTION ( 'NONE',  ( 0.0000000000000000000, 0.0000000000000000000, -1.000000000000000000 ) ) ;
#15 = CARTESIAN_POINT ( 'NONE',  ( -36.00000000000000000, 6.000000000000000000, -5.499999999999996400 ) ) ;
#16 = EDGE_LOOP ( 'NONE', ( #308, #372, #370, #288 ) ) ;
#17 = APPROVAL_ROLE ( '' ) ;
#18 = FACE_BOUND ( 'NONE', #205, .T. ) ;
#19 = APPLICATION_PROTOCOL_DEFINITION ( 'international standard', 'config_control_design', 1994, #367 ) ;
#20 = CARTESIAN_POINT ( 'NONE',  ( 0.0000000000000000000, 6.000000000000000000, 0.0000000000000000000 ) ) ;
#21 = CC_DESIGN_APPROVAL ( #252, ( #84 ) ) ;
#22 = ORIENTED_EDGE ( 'NONE', *, *, #223, .T. ) ;
#23 = FACE_OUTER_BOUND ( 'NONE', #174, .T. ) ;
#24 = AXIS2_PLACEMENT_3D ( 'NONE', #65, #263, #14 ) ;
#25 = VECTOR ( 'NONE', #152, 1000.000000000000000 ) ;
#26 = DATE_AND_TIME ( #189, #269 ) ;
#27 = AXIS2_PLACEMENT_3D ( 'NONE', #70, #180, #41 ) ;
#28 = EDGE_LOOP ( 'NONE', ( #66, #298 ) ) ;
#29 = EDGE_CURVE ( 'NONE', #217, #224, #117, .T. ) ;
#30 = CIRCLE ( 'NONE', #27, 50.00000000000000000 ) ;
#31 = ADVANCED_FACE ( 'NONE', ( #225 ), #162, .T. ) ;
#32 = CARTESIAN_POINT ( 'NONE',  ( 36.00000000000000000, 6.000000000000000000, -1.322618543079141300E-014 ) ) ;
#33 = CARTESIAN_POINT ( 'NONE',  ( 6.062001655779400100E-015, 6.000000000000000000, 49.00000000000002100 ) ) ;
#34 = DIRECTION ( 'NONE',  ( -0.0000000000000000000, -1.000000000000000000, -0.0000000000000000000 ) ) ;
#35 = ORIENTED_EDGE ( 'NONE', *, *, #106, .F. ) ;
#36 = PERSON_AND_ORGANIZATION ( #234, #44 ) ;
#37 = ORIENTED_EDGE ( 'NONE', *, *, #87, .T. ) ;
#38 = CIRCLE ( 'NONE', #192, 5.499999999999996400 ) ;
#39 = DIRECTION ( 'NONE',  ( 0.0000000000000000000, 1.000000000000000000, 0.0000000000000000000 ) ) ;
#40 = CARTESIAN_POINT ( 'NONE',  ( 6.123233995736766100E-015, 4.999999999999999100, 50.00000000000000000 ) ) ;
#41 = DIRECTION ( 'NONE',  ( 0.0000000000000000000, 0.0000000000000000000, 1.000000000000000000 ) ) ;
#42 = VERTEX_POINT ( 'NONE', #127 ) ;
#43 = PLANE ( 'NONE',  #283 ) ;
#44 = ORGANIZATION ( 'UNSPECIFIED', 'UNSPECIFIED', '' ) ;
#45 = APPLICATION_CONTEXT ( 'configuration controlled 3d designs of mechanical parts and assemblies' ) ;
#46 =( NAMED_UNIT ( * ) PLANE_ANGLE_UNIT ( ) SI_UNIT ( $, .RADIAN. ) );
#47 = AXIS2_PLACEMENT_3D ( 'NONE', #168, #2, #216 ) ;
#48 = ORIENTED_EDGE ( 'NONE', *, *, #10, .T. ) ;
#49 = LINE ( 'NONE', #325, #347 ) ;
#50 = VERTEX_POINT ( 'NONE', #242 ) ;
#51 = CALENDAR_DATE ( 2019, 6, 5 ) ;
#52 = APPROVAL_ROLE ( '' ) ;
#53 = ORIENTED_EDGE ( 'NONE', *, *, #239, .T. ) ;
#54 = VECTOR ( 'NONE', #148, 1000.000000000000000 ) ;
#55 = AXIS2_PLACEMENT_3D ( 'NONE', #176, #151, #264 ) ;
#56 = ORIENTED_EDGE ( 'NONE', *, *, #302, .F. ) ;
#57 = CARTESIAN_POINT ( 'NONE',  ( -36.00000000000000000, 6.000000000000000000, 5.499999999999996400 ) ) ;
#58 = CARTESIAN_POINT ( 'NONE',  ( 0.0000000000000000000, 0.0000000000000000000, -50.00000000000000000 ) ) ;
#59 = AXIS2_PLACEMENT_3D ( 'NONE', #114, #170, #282 ) ;
#60 = UNCERTAINTY_MEASURE_WITH_UNIT (LENGTH_MEASURE( 1.000000000000000100E-005 ), #270, 'distance_accuracy_value', 'NONE');
#61 = ORIENTED_EDGE ( 'NONE', *, *, #96, .T. ) ;
#62 = CALENDAR_DATE ( 2019, 6, 5 ) ;
#63 = VECTOR ( 'NONE', #34, 1000.000000000000000 ) ;
#64 = PRODUCT_RELATED_PRODUCT_CATEGORY ( 'detail', '', ( #215 ) ) ;
#65 = CARTESIAN_POINT ( 'NONE',  ( 0.0000000000000000000, 6.000000000000000000, 0.0000000000000000000 ) ) ;
#66 = ORIENTED_EDGE ( 'NONE', *, *, #77, .T. ) ;
#67 = CIRCLE ( 'NONE', #172, 5.499999999999996400 ) ;
#68 = CARTESIAN_POINT ( 'NONE',  ( 0.0000000000000000000, 0.0000000000000000000, 0.0000000000000000000 ) ) ;
#69 = AXIS2_PLACEMENT_3D ( 'NONE', #83, #354, #255 ) ;
#70 = CARTESIAN_POINT ( 'NONE',  ( 0.0000000000000000000, 0.0000000000000000000, 0.0000000000000000000 ) ) ;
#71 = PERSON_AND_ORGANIZATION_ROLE ( 'design_supplier' ) ;
#72 = VERTEX_POINT ( 'NONE', #335 ) ;
#73 = LOCAL_TIME ( 7, 51, 34.00000000000000000, #157 ) ;
#74 = DIRECTION ( 'NONE',  ( 0.0000000000000000000, 0.0000000000000000000, 1.000000000000000000 ) ) ;
#75 = ORIENTED_EDGE ( 'NONE', *, *, #77, .F. ) ;
#76 = CYLINDRICAL_SURFACE ( 'NONE', #343, 5.499999999999996400 ) ;
#77 = EDGE_CURVE ( 'NONE', #320, #116, #82, .T. ) ;
#78 = EDGE_LOOP ( 'NONE', ( #345, #357, #235, #190 ) ) ;
#79 = DATE_AND_TIME ( #115, #73 ) ;
#80 = EDGE_LOOP ( 'NONE', ( #253, #155, #267, #280 ) ) ;
#81 = CARTESIAN_POINT ( 'NONE',  ( 36.00000000000000000, 0.0000000000000000000, -1.322618543079141300E-014 ) ) ;
#82 = CIRCLE ( 'NONE', #295, 5.499999999999996400 ) ;
#83 = CARTESIAN_POINT ( 'NONE',  ( 36.00000000000000000, 6.000000000000000000, -1.322618543079141300E-014 ) ) ;
#84 = PRODUCT_DEFINITION_FORMATION_WITH_SPECIFIED_SOURCE ( 'ANY', '', #215, .NOT_KNOWN. ) ;
#85 = CARTESIAN_POINT ( 'NONE',  ( -36.00000000000000000, 6.000000000000000000, 0.0000000000000000000 ) ) ;
#86 = DIRECTION ( 'NONE',  ( 0.0000000000000000000, 0.0000000000000000000, 1.000000000000000000 ) ) ;
#87 = EDGE_CURVE ( 'NONE', #108, #72, #218, .T. ) ;
#88 = ORIENTED_EDGE ( 'NONE', *, *, #330, .T. ) ;
#89 = CIRCLE ( 'NONE', #47, 49.00000000000002100 ) ;
#90 = APPROVAL_PERSON_ORGANIZATION ( #121, #243, #154 ) ;
#91 = CARTESIAN_POINT ( 'NONE',  ( -36.00000000000000000, 6.000000000000000000, 0.0000000000000000000 ) ) ;
#92 = ORIENTED_EDGE ( 'NONE', *, *, #307, .T. ) ;
#93 = CYLINDRICAL_SURFACE ( 'NONE', #24, 50.00000000000000000 ) ;
#94 = AXIS2_PLACEMENT_3D ( 'NONE', #227, #39, #293 ) ;
#95 = CARTESIAN_POINT ( 'NONE',  ( -36.00000000000000000, 0.0000000000000000000, 0.0000000000000000000 ) ) ;
#96 = EDGE_CURVE ( 'NONE', #8, #320, #309, .T. ) ;
#97 = DIRECTION ( 'NONE',  ( 0.0000000000000000000, 1.000000000000000000, 0.0000000000000000000 ) ) ;
#98 = CARTESIAN_POINT ( 'NONE',  ( 36.00000000000000000, 6.000000000000000000, 5.499999999999983100 ) ) ;
#99 = LINE ( 'NONE', #173, #25 ) ;
#100 =( NAMED_UNIT ( * ) SI_UNIT ( $, .STERADIAN. ) SOLID_ANGLE_UNIT ( ) );
#101 = COORDINATED_UNIVERSAL_TIME_OFFSET ( 1, 0, .AHEAD. ) ;
#102 = DIRECTION ( 'NONE',  ( 0.0000000000000000000, -1.000000000000000000, 0.0000000000000000000 ) ) ;
#103 = ORIENTED_EDGE ( 'NONE', *, *, #307, .F. ) ;
#104 = DATE_AND_TIME ( #62, #175 ) ;
#105 = ORIENTED_EDGE ( 'NONE', *, *, #202, .T. ) ;
#106 = EDGE_CURVE ( 'NONE', #144, #284, #299, .T. ) ;
#107 = APPROVAL_DATE_TIME ( #301, #243 ) ;
#108 = VERTEX_POINT ( 'NONE', #33 ) ;
#109 = DIRECTION ( 'NONE',  ( 0.0000000000000000000, 0.0000000000000000000, -1.000000000000000000 ) ) ;
#110 = AXIS2_PLACEMENT_3D ( 'NONE', #193, #257, #109 ) ;
#111 = DIRECTION ( 'NONE',  ( 0.0000000000000000000, 0.0000000000000000000, -1.000000000000000000 ) ) ;
#112 = ADVANCED_FACE ( 'NONE', ( #373 ), #156, .F. ) ;
#113 = EDGE_LOOP ( 'NONE', ( #103, #56 ) ) ;
#114 = CARTESIAN_POINT ( 'NONE',  ( 0.0000000000000000000, 4.999999999999999100, 0.0000000000000000000 ) ) ;
#115 = CALENDAR_DATE ( 2019, 6, 5 ) ;
#116 = VERTEX_POINT ( 'NONE', #313 ) ;
#117 = CIRCLE ( 'NONE', #231, 50.00000000000000000 ) ;
#118 = DIRECTION ( 'NONE',  ( 0.0000000000000000000, -0.0000000000000000000, 1.000000000000000000 ) ) ;
#119 = DIRECTION ( 'NONE',  ( 0.0000000000000000000, 0.0000000000000000000, 1.000000000000000000 ) ) ;
#120 = DIRECTION ( 'NONE',  ( -0.0000000000000000000, -1.000000000000000000, -0.0000000000000000000 ) ) ;
#121 = PERSON_AND_ORGANIZATION ( #234, #44 ) ;
#122 = CARTESIAN_POINT ( 'NONE',  ( 0.0000000000000000000, 0.0000000000000000000, 0.0000000000000000000 ) ) ;
#123 = PERSON_AND_ORGANIZATION_ROLE ( 'creator' ) ;
#124 = ORIENTED_EDGE ( 'NONE', *, *, #330, .F. ) ;
#125 = CARTESIAN_POINT ( 'NONE',  ( 0.0000000000000000000, 4.999999999999999100, 0.0000000000000000000 ) ) ;
#126 = CIRCLE ( 'NONE', #297, 5.499999999999996400 ) ;
#127 = CARTESIAN_POINT ( 'NONE',  ( 36.00000000000000000, 6.000000000000000000, 5.499999999999983100 ) ) ;
#128 =( GEOMETRIC_REPRESENTATION_CONTEXT ( 3 ) GLOBAL_UNCERTAINTY_ASSIGNED_CONTEXT ( ( #60 ) ) GLOBAL_UNIT_ASSIGNED_CONTEXT ( ( #270, #46, #100 ) ) REPRESENTATION_CONTEXT ( 'NONE', 'WORKASPACE' ) );
#129 = CONICAL_SURFACE ( 'NONE', #161, 49.00000000000002100, 0.7853981633974378400 ) ;
#130 = PERSON_AND_ORGANIZATION_ROLE ( 'classification_officer' ) ;
#131 = FACE_OUTER_BOUND ( 'NONE', #247, .T. ) ;
#132 = CIRCLE ( 'NONE', #69, 5.499999999999996400 ) ;
#133 = ADVANCED_FACE ( 'NONE', ( #13 ), #76, .F. ) ;
#134 = DATE_AND_TIME ( #51, #208 ) ;
#135 = EDGE_CURVE ( 'NONE', #50, #284, #281, .T. ) ;
#136 = DIRECTION ( 'NONE',  ( 0.0000000000000000000, 1.000000000000000000, 0.0000000000000000000 ) ) ;
#137 = ADVANCED_FACE ( 'NONE', ( #207 ), #139, .T. ) ;
#138 = ORIENTED_EDGE ( 'NONE', *, *, #143, .F. ) ;
#139 = CYLINDRICAL_SURFACE ( 'NONE', #110, 50.00000000000000000 ) ;
#140 = DIRECTION ( 'NONE',  ( 0.0000000000000000000, 0.0000000000000000000, 1.000000000000000000 ) ) ;
#141 = CC_DESIGN_PERSON_AND_ORGANIZATION_ASSIGNMENT ( #356, #123, ( #84 ) ) ;
#142 = DIRECTION ( 'NONE',  ( 0.0000000000000000000, 0.0000000000000000000, 1.000000000000000000 ) ) ;
#143 = EDGE_CURVE ( 'NONE', #42, #144, #132, .T. ) ;
#144 = VERTEX_POINT ( 'NONE', #352 ) ;
#145 = VECTOR ( 'NONE', #340, 1000.000000000000000 ) ;
#146 = PERSON_AND_ORGANIZATION ( #234, #44 ) ;
#147 = CARTESIAN_POINT ( 'NONE',  ( 0.0000000000000000000, 6.000000000000000000, 0.0000000000000000000 ) ) ;
#148 = DIRECTION ( 'NONE',  ( 0.0000000000000000000, -0.7071067811865549000, -0.7071067811865401300 ) ) ;
#149 = VERTEX_POINT ( 'NONE', #58 ) ;
#150 = DIRECTION ( 'NONE',  ( 0.0000000000000000000, 1.000000000000000000, 0.0000000000000000000 ) ) ;
#151 = DIRECTION ( 'NONE',  ( -0.0000000000000000000, -1.000000000000000000, -0.0000000000000000000 ) ) ;
#152 = DIRECTION ( 'NONE',  ( -0.0000000000000000000, -1.000000000000000000, -0.0000000000000000000 ) ) ;
#153 = DIRECTION ( 'NONE',  ( 0.0000000000000000000, -1.000000000000000000, 0.0000000000000000000 ) ) ;
#154 = APPROVAL_ROLE ( '' ) ;
#155 = ORIENTED_EDGE ( 'NONE', *, *, #165, .T. ) ;
#156 = CYLINDRICAL_SURFACE ( 'NONE', #7, 5.499999999999996400 ) ;
#157 = COORDINATED_UNIVERSAL_TIME_OFFSET ( 1, 0, .AHEAD. ) ;
#158 = CC_DESIGN_APPROVAL ( #195, ( #360 ) ) ;
#159 = CARTESIAN_POINT ( 'NONE',  ( -36.00000000000000000, 0.0000000000000000000, 0.0000000000000000000 ) ) ;
#160 = LINE ( 'NONE', #329, #369 ) ;
#161 = AXIS2_PLACEMENT_3D ( 'NONE', #266, #153, #365 ) ;
#162 = CONICAL_SURFACE ( 'NONE', #276, 49.00000000000002100, 0.7853981633974378400 ) ;
#163 = ORIENTED_EDGE ( 'NONE', *, *, #246, .F. ) ;
#164 = CIRCLE ( 'NONE', #59, 50.00000000000000000 ) ;
#165 = EDGE_CURVE ( 'NONE', #224, #188, #199, .T. ) ;
#166 = APPROVAL_PERSON_ORGANIZATION ( #318, #195, #52 ) ;
#167 = ORIENTED_EDGE ( 'NONE', *, *, #210, .F. ) ;
#168 = CARTESIAN_POINT ( 'NONE',  ( 0.0000000000000000000, 6.000000000000000000, 0.0000000000000000000 ) ) ;
#169 = CC_DESIGN_PERSON_AND_ORGANIZATION_ASSIGNMENT ( #36, #130, ( #360 ) ) ;
#170 = DIRECTION ( 'NONE',  ( 0.0000000000000000000, -1.000000000000000000, 0.0000000000000000000 ) ) ;
#171 = ORIENTED_EDGE ( 'NONE', *, *, #135, .F. ) ;
#172 = AXIS2_PLACEMENT_3D ( 'NONE', #95, #150, #296 ) ;
#173 = CARTESIAN_POINT ( 'NONE',  ( 0.0000000000000000000, 6.000000000000000000, -50.00000000000000000 ) ) ;
#174 = EDGE_LOOP ( 'NONE', ( #368, #331, #61, #179 ) ) ;
#175 = LOCAL_TIME ( 7, 51, 34.00000000000000000, #182 ) ;
#176 = CARTESIAN_POINT ( 'NONE',  ( -36.00000000000000000, 6.000000000000000000, 0.0000000000000000000 ) ) ;
#177 = DIRECTION ( 'NONE',  ( -0.0000000000000000000, -1.000000000000000000, -0.0000000000000000000 ) ) ;
#178 = CARTESIAN_POINT ( 'NONE',  ( 36.00000000000000000, 0.0000000000000000000, -5.500000000000008900 ) ) ;
#179 = ORIENTED_EDGE ( 'NONE', *, *, #348, .F. ) ;
#180 = DIRECTION ( 'NONE',  ( 0.0000000000000000000, 1.000000000000000000, 0.0000000000000000000 ) ) ;
#181 = PERSON_AND_ORGANIZATION_ROLE ( 'creator' ) ;
#182 = COORDINATED_UNIVERSAL_TIME_OFFSET ( 1, 0, .AHEAD. ) ;
#183 = DIRECTION ( 'NONE',  ( 1.000000000000000000, 0.0000000000000000000, 0.0000000000000000000 ) ) ;
#184 = DIRECTION ( 'NONE',  ( 0.0000000000000000000, 0.0000000000000000000, -1.000000000000000000 ) ) ;
#185 = ORIENTED_EDGE ( 'NONE', *, *, #223, .F. ) ;
#186 = CYLINDRICAL_SURFACE ( 'NONE', #55, 5.499999999999996400 ) ;
#187 = CC_DESIGN_DATE_AND_TIME_ASSIGNMENT ( #26, #244, ( #360 ) ) ;
#188 = VERTEX_POINT ( 'NONE', #222 ) ;
#189 = CALENDAR_DATE ( 2019, 6, 5 ) ;
#190 = ORIENTED_EDGE ( 'NONE', *, *, #355, .T. ) ;
#191 = CYLINDRICAL_SURFACE ( 'NONE', #291, 5.499999999999996400 ) ;
#192 = AXIS2_PLACEMENT_3D ( 'NONE', #323, #232, #233 ) ;
#193 = CARTESIAN_POINT ( 'NONE',  ( 0.0000000000000000000, 6.000000000000000000, 0.0000000000000000000 ) ) ;
#194 = CARTESIAN_POINT ( 'NONE',  ( 36.00000000000000000, 6.000000000000000000, -5.500000000000008900 ) ) ;
#195 = APPROVAL ( #250, 'UNSPECIFIED' ) ;
#196 = DIRECTION ( 'NONE',  ( -0.0000000000000000000, -1.000000000000000000, -0.0000000000000000000 ) ) ;
#197 = EDGE_LOOP ( 'NONE', ( #22, #37 ) ) ;
#198 = APPROVAL_DATE_TIME ( #104, #195 ) ;
#199 = LINE ( 'NONE', #286, #312 ) ;
#200 = PLANE ( 'NONE',  #274 ) ;
#201 = CC_DESIGN_SECURITY_CLASSIFICATION ( #360, ( #84 ) ) ;
#202 = EDGE_CURVE ( 'NONE', #284, #50, #126, .T. ) ;
#203 = DIRECTION ( 'NONE',  ( 0.0000000000000000000, 0.0000000000000000000, 1.000000000000000000 ) ) ;
#204 = APPLICATION_PROTOCOL_DEFINITION ( 'international standard', 'config_control_design', 1994, #45 ) ;
#205 = EDGE_LOOP ( 'NONE', ( #105, #261 ) ) ;
#206 = MECHANICAL_CONTEXT ( 'NONE', #367, 'mechanical' ) ;
#207 = FACE_OUTER_BOUND ( 'NONE', #78, .T. ) ;
#208 = LOCAL_TIME ( 7, 51, 34.00000000000000000, #333 ) ;
#209 = AXIS2_PLACEMENT_3D ( 'NONE', #122, #332, #359 ) ;
#210 = EDGE_CURVE ( 'NONE', #224, #217, #164, .T. ) ;
#211 = EDGE_LOOP ( 'NONE', ( #53, #88, #316, #35 ) ) ;
#212 = FACE_BOUND ( 'NONE', #28, .T. ) ;
#213 = VERTEX_POINT ( 'NONE', #57 ) ;
#214 = EDGE_CURVE ( 'NONE', #72, #217, #228, .T. ) ;
#215 = PRODUCT ( 'A_1950-100', 'A_1950-100', '', ( #206 ) ) ;
#216 = DIRECTION ( 'NONE',  ( 0.0000000000000000000, 0.0000000000000000000, 1.000000000000000000 ) ) ;
#217 = VERTEX_POINT ( 'NONE', #287 ) ;
#218 = CIRCLE ( 'NONE', #341, 49.00000000000002100 ) ;
#219 = AXIS2_PLACEMENT_3D ( 'NONE', #81, #6, #140 ) ;
#220 = DIRECTION ( 'NONE',  ( 0.0000000000000000000, 0.0000000000000000000, -1.000000000000000000 ) ) ;
#221 = ADVANCED_FACE ( 'NONE', ( #305 ), #191, .F. ) ;
#222 = CARTESIAN_POINT ( 'NONE',  ( 6.123233995736766100E-015, 0.0000000000000000000, 50.00000000000000000 ) ) ;
#223 = EDGE_CURVE ( 'NONE', #72, #108, #89, .T. ) ;
#224 = VERTEX_POINT ( 'NONE', #40 ) ;
#225 = FACE_OUTER_BOUND ( 'NONE', #16, .T. ) ;
#226 = CC_DESIGN_DATE_AND_TIME_ASSIGNMENT ( #79, #236, ( #306 ) ) ;
#227 = CARTESIAN_POINT ( 'NONE',  ( 36.00000000000000000, 6.000000000000000000, -1.322618543079141300E-014 ) ) ;
#228 = LINE ( 'NONE', #324, #54 ) ;
#229 = DIRECTION ( 'NONE',  ( 0.0000000000000000000, 1.000000000000000000, 0.0000000000000000000 ) ) ;
#230 = DIRECTION ( 'NONE',  ( 0.0000000000000000000, 0.0000000000000000000, -1.000000000000000000 ) ) ;
#231 = AXIS2_PLACEMENT_3D ( 'NONE', #125, #102, #273 ) ;
#232 = DIRECTION ( 'NONE',  ( 0.0000000000000000000, 1.000000000000000000, 0.0000000000000000000 ) ) ;
#233 = DIRECTION ( 'NONE',  ( 0.0000000000000000000, 0.0000000000000000000, 1.000000000000000000 ) ) ;
#234 = PERSON ( 'UNSPECIFIED', 'UNSPECIFIED', 'UNSPECIFIED', ('UNSPECIFIED'), ('UNSPECIFIED'), ('UNSPECIFIED') ) ;
#235 = ORIENTED_EDGE ( 'NONE', *, *, #268, .T. ) ;
#236 = DATE_TIME_ROLE ( 'creation_date' ) ;
#237 = APPROVAL_DATE_TIME ( #134, #252 ) ;
#238 = PERSON_AND_ORGANIZATION_ROLE ( 'design_owner' ) ;
#239 = EDGE_CURVE ( 'NONE', #144, #42, #337, .T. ) ;
#240 = EDGE_LOOP ( 'NONE', ( #362, #294 ) ) ;
#241 = DIRECTION ( 'NONE',  ( 0.0000000000000000000, 1.000000000000000000, 0.0000000000000000000 ) ) ;
#242 = CARTESIAN_POINT ( 'NONE',  ( 36.00000000000000000, 0.0000000000000000000, 5.499999999999983100 ) ) ;
#243 = APPROVAL ( #334, 'UNSPECIFIED' ) ;
#244 = DATE_TIME_ROLE ( 'classification_date' ) ;
#245 = ADVANCED_FACE ( 'NONE', ( #322, #358, #272 ), #200, .T. ) ;
#246 = EDGE_CURVE ( 'NONE', #108, #224, #49, .T. ) ;
#247 = EDGE_LOOP ( 'NONE', ( #163, #185, #271, #167 ) ) ;
#248 = SECURITY_CLASSIFICATION_LEVEL ( 'unclassified' ) ;
#249 = PERSON_AND_ORGANIZATION ( #234, #44 ) ;
#250 = APPROVAL_STATUS ( 'not_yet_approved' ) ;
#251 = ADVANCED_FACE ( 'NONE', ( #4 ), #93, .T. ) ;
#252 = APPROVAL ( #366, 'UNSPECIFIED' ) ;
#253 = ORIENTED_EDGE ( 'NONE', *, *, #29, .T. ) ;
#254 = ADVANCED_BREP_SHAPE_REPRESENTATION ( 'A_1950-100', ( #321, #315 ), #128 ) ;
#255 = DIRECTION ( 'NONE',  ( 0.0000000000000000000, 0.0000000000000000000, 1.000000000000000000 ) ) ;
#256 = ADVANCED_FACE ( 'NONE', ( #23 ), #186, .F. ) ;
#257 = DIRECTION ( 'NONE',  ( -0.0000000000000000000, -1.000000000000000000, -0.0000000000000000000 ) ) ;
#258 = CARTESIAN_POINT ( 'NONE',  ( 36.00000000000000000, 0.0000000000000000000, -1.322618543079141300E-014 ) ) ;
#259 = CLOSED_SHELL ( 'NONE', ( #31, #133, #221, #251, #245, #279, #137, #256, #112, #5 ) ) ;
#260 = LOCAL_TIME ( 7, 51, 34.00000000000000000, #310 ) ;
#261 = ORIENTED_EDGE ( 'NONE', *, *, #135, .T. ) ;
#262 = FACE_OUTER_BOUND ( 'NONE', #240, .T. ) ;
#263 = DIRECTION ( 'NONE',  ( -0.0000000000000000000, -1.000000000000000000, -0.0000000000000000000 ) ) ;
#264 = DIRECTION ( 'NONE',  ( 0.0000000000000000000, 0.0000000000000000000, -1.000000000000000000 ) ) ;
#265 = CARTESIAN_POINT ( 'NONE',  ( 0.0000000000000000000, 6.000000000000000000, 0.0000000000000000000 ) ) ;
#266 = CARTESIAN_POINT ( 'NONE',  ( 0.0000000000000000000, 6.000000000000000000, 0.0000000000000000000 ) ) ;
#267 = ORIENTED_EDGE ( 'NONE', *, *, #319, .T. ) ;
#268 = EDGE_CURVE ( 'NONE', #217, #149, #99, .T. ) ;
#269 = LOCAL_TIME ( 7, 51, 34.00000000000000000, #101 ) ;
#270 =( LENGTH_UNIT ( ) NAMED_UNIT ( * ) SI_UNIT ( .MILLI., .METRE. ) );
#271 = ORIENTED_EDGE ( 'NONE', *, *, #214, .T. ) ;
#272 = FACE_BOUND ( 'NONE', #12, .T. ) ;
#273 = DIRECTION ( 'NONE',  ( 0.0000000000000000000, 0.0000000000000000000, 1.000000000000000000 ) ) ;
#274 = AXIS2_PLACEMENT_3D ( 'NONE', #147, #229, #292 ) ;
#275 = CARTESIAN_POINT ( 'NONE',  ( -36.00000000000000000, 6.000000000000000000, -5.499999999999996400 ) ) ;
#276 = AXIS2_PLACEMENT_3D ( 'NONE', #20, #303, #184 ) ;
#277 = EDGE_LOOP ( 'NONE', ( #124, #336, #3, #171 ) ) ;
#278 = CC_DESIGN_PERSON_AND_ORGANIZATION_ASSIGNMENT ( #344, #238, ( #215 ) ) ;
#279 = ADVANCED_FACE ( 'NONE', ( #212, #262, #18 ), #43, .F. ) ;
#280 = ORIENTED_EDGE ( 'NONE', *, *, #268, .F. ) ;
#281 = CIRCLE ( 'NONE', #219, 5.499999999999996400 ) ;
#282 = DIRECTION ( 'NONE',  ( 0.0000000000000000000, 0.0000000000000000000, 1.000000000000000000 ) ) ;
#283 = AXIS2_PLACEMENT_3D ( 'NONE', #363, #97, #118 ) ;
#284 = VERTEX_POINT ( 'NONE', #178 ) ;
#285 = LINE ( 'NONE', #98, #289 ) ;
#286 = CARTESIAN_POINT ( 'NONE',  ( 6.123233995736766100E-015, 6.000000000000000000, 50.00000000000000000 ) ) ;
#287 = CARTESIAN_POINT ( 'NONE',  ( 0.0000000000000000000, 4.999999999999999100, -50.00000000000000000 ) ) ;
#288 = ORIENTED_EDGE ( 'NONE', *, *, #214, .F. ) ;
#289 = VECTOR ( 'NONE', #120, 1000.000000000000000 ) ;
#290 = APPROVAL_PERSON_ORGANIZATION ( #1, #252, #17 ) ;
#291 = AXIS2_PLACEMENT_3D ( 'NONE', #85, #361, #230 ) ;
#292 = DIRECTION ( 'NONE',  ( 0.0000000000000000000, -0.0000000000000000000, 1.000000000000000000 ) ) ;
#293 = DIRECTION ( 'NONE',  ( 0.0000000000000000000, 0.0000000000000000000, 1.000000000000000000 ) ) ;
#294 = ORIENTED_EDGE ( 'NONE', *, *, #319, .F. ) ;
#295 = AXIS2_PLACEMENT_3D ( 'NONE', #159, #241, #74 ) ;
#296 = DIRECTION ( 'NONE',  ( 0.0000000000000000000, 0.0000000000000000000, 1.000000000000000000 ) ) ;
#297 = AXIS2_PLACEMENT_3D ( 'NONE', #258, #314, #142 ) ;
#298 = ORIENTED_EDGE ( 'NONE', *, *, #348, .T. ) ;
#299 = LINE ( 'NONE', #194, #63 ) ;
#300 = DIRECTION ( 'NONE',  ( -0.0000000000000000000, -1.000000000000000000, -0.0000000000000000000 ) ) ;
#301 = DATE_AND_TIME ( #9, #260 ) ;
#302 = EDGE_CURVE ( 'NONE', #213, #8, #371, .T. ) ;
#303 = DIRECTION ( 'NONE',  ( 0.0000000000000000000, -1.000000000000000000, 0.0000000000000000000 ) ) ;
#304 = ORIENTED_EDGE ( 'NONE', *, *, #239, .F. ) ;
#305 = FACE_OUTER_BOUND ( 'NONE', #353, .T. ) ;
#306 = PRODUCT_DEFINITION ( 'UNKNOWN', '', #84, #338 ) ;
#307 = EDGE_CURVE ( 'NONE', #8, #213, #38, .T. ) ;
#308 = ORIENTED_EDGE ( 'NONE', *, *, #87, .F. ) ;
#309 = LINE ( 'NONE', #275, #145 ) ;
#310 = COORDINATED_UNIVERSAL_TIME_OFFSET ( 1, 0, .AHEAD. ) ;
#311 = CC_DESIGN_APPROVAL ( #243, ( #306 ) ) ;
#312 = VECTOR ( 'NONE', #177, 1000.000000000000000 ) ;
#313 = CARTESIAN_POINT ( 'NONE',  ( -36.00000000000000000, 0.0000000000000000000, 5.499999999999996400 ) ) ;
#314 = DIRECTION ( 'NONE',  ( 0.0000000000000000000, 1.000000000000000000, 0.0000000000000000000 ) ) ;
#315 = AXIS2_PLACEMENT_3D ( 'NONE', #68, #119, #183 ) ;
#316 = ORIENTED_EDGE ( 'NONE', *, *, #202, .F. ) ;
#317 = CIRCLE ( 'NONE', #209, 50.00000000000000000 ) ;
#318 = PERSON_AND_ORGANIZATION ( #234, #44 ) ;
#319 = EDGE_CURVE ( 'NONE', #188, #149, #30, .T. ) ;
#320 = VERTEX_POINT ( 'NONE', #11 ) ;
#321 = MANIFOLD_SOLID_BREP ( 'Chamfer1', #259 ) ;
#322 = FACE_OUTER_BOUND ( 'NONE', #197, .T. ) ;
#323 = CARTESIAN_POINT ( 'NONE',  ( -36.00000000000000000, 6.000000000000000000, 0.0000000000000000000 ) ) ;
#324 = CARTESIAN_POINT ( 'NONE',  ( 0.0000000000000000000, 6.000000000000000000, -49.00000000000002100 ) ) ;
#325 = CARTESIAN_POINT ( 'NONE',  ( 6.000769315822033300E-015, 6.000000000000000000, 49.00000000000002100 ) ) ;
#326 = CC_DESIGN_PERSON_AND_ORGANIZATION_ASSIGNMENT ( #249, #71, ( #84 ) ) ;
#327 = PRODUCT_DEFINITION_SHAPE ( 'NONE', 'NONE',  #306 ) ;
#328 = DIRECTION ( 'NONE',  ( 8.659560562354844100E-017, -0.7071067811865549000, 0.7071067811865401300 ) ) ;
#329 = CARTESIAN_POINT ( 'NONE',  ( -36.00000000000000000, 6.000000000000000000, 5.499999999999996400 ) ) ;
#330 = EDGE_CURVE ( 'NONE', #42, #50, #285, .T. ) ;
#331 = ORIENTED_EDGE ( 'NONE', *, *, #302, .T. ) ;
#332 = DIRECTION ( 'NONE',  ( 0.0000000000000000000, 1.000000000000000000, 0.0000000000000000000 ) ) ;
#333 = COORDINATED_UNIVERSAL_TIME_OFFSET ( 1, 0, .AHEAD. ) ;
#334 = APPROVAL_STATUS ( 'not_yet_approved' ) ;
#335 = CARTESIAN_POINT ( 'NONE',  ( 0.0000000000000000000, 6.000000000000000000, -49.00000000000002100 ) ) ;
#336 = ORIENTED_EDGE ( 'NONE', *, *, #143, .T. ) ;
#337 = CIRCLE ( 'NONE', #94, 5.499999999999996400 ) ;
#338 = DESIGN_CONTEXT ( 'detailed design', #45, 'design' ) ;
#339 = CC_DESIGN_PERSON_AND_ORGANIZATION_ASSIGNMENT ( #146, #181, ( #306 ) ) ;
#340 = DIRECTION ( 'NONE',  ( -0.0000000000000000000, -1.000000000000000000, -0.0000000000000000000 ) ) ;
#341 = AXIS2_PLACEMENT_3D ( 'NONE', #265, #136, #86 ) ;
#342 = ORIENTED_EDGE ( 'NONE', *, *, #96, .F. ) ;
#343 = AXIS2_PLACEMENT_3D ( 'NONE', #32, #196, #220 ) ;
#344 = PERSON_AND_ORGANIZATION ( #234, #44 ) ;
#345 = ORIENTED_EDGE ( 'NONE', *, *, #165, .F. ) ;
#346 = SHAPE_DEFINITION_REPRESENTATION ( #327, #254 ) ;
#347 = VECTOR ( 'NONE', #328, 1000.000000000000000 ) ;
#348 = EDGE_CURVE ( 'NONE', #116, #320, #67, .T. ) ;
#349 = DIRECTION ( 'NONE',  ( -0.0000000000000000000, -1.000000000000000000, -0.0000000000000000000 ) ) ;
#350 = CARTESIAN_POINT ( 'NONE',  ( 36.00000000000000000, 6.000000000000000000, -1.322618543079141300E-014 ) ) ;
#351 = AXIS2_PLACEMENT_3D ( 'NONE', #91, #364, #203 ) ;
#352 = CARTESIAN_POINT ( 'NONE',  ( 36.00000000000000000, 6.000000000000000000, -5.500000000000008900 ) ) ;
#353 = EDGE_LOOP ( 'NONE', ( #92, #48, #75, #342 ) ) ;
#354 = DIRECTION ( 'NONE',  ( 0.0000000000000000000, 1.000000000000000000, 0.0000000000000000000 ) ) ;
#355 = EDGE_CURVE ( 'NONE', #149, #188, #317, .T. ) ;
#356 = PERSON_AND_ORGANIZATION ( #234, #44 ) ;
#357 = ORIENTED_EDGE ( 'NONE', *, *, #210, .T. ) ;
#358 = FACE_BOUND ( 'NONE', #113, .T. ) ;
#359 = DIRECTION ( 'NONE',  ( 0.0000000000000000000, 0.0000000000000000000, 1.000000000000000000 ) ) ;
#360 = SECURITY_CLASSIFICATION ( '', '', #248 ) ;
#361 = DIRECTION ( 'NONE',  ( -0.0000000000000000000, -1.000000000000000000, -0.0000000000000000000 ) ) ;
#362 = ORIENTED_EDGE ( 'NONE', *, *, #355, .F. ) ;
#363 = CARTESIAN_POINT ( 'NONE',  ( 0.0000000000000000000, 0.0000000000000000000, 0.0000000000000000000 ) ) ;
#364 = DIRECTION ( 'NONE',  ( 0.0000000000000000000, 1.000000000000000000, 0.0000000000000000000 ) ) ;
#365 = DIRECTION ( 'NONE',  ( 0.0000000000000000000, 0.0000000000000000000, -1.000000000000000000 ) ) ;
#366 = APPROVAL_STATUS ( 'not_yet_approved' ) ;
#367 = APPLICATION_CONTEXT ( 'configuration controlled 3d designs of mechanical parts and assemblies' ) ;
#368 = ORIENTED_EDGE ( 'NONE', *, *, #10, .F. ) ;
#369 = VECTOR ( 'NONE', #300, 1000.000000000000000 ) ;
#370 = ORIENTED_EDGE ( 'NONE', *, *, #29, .F. ) ;
#371 = CIRCLE ( 'NONE', #351, 5.499999999999996400 ) ;
#372 = ORIENTED_EDGE ( 'NONE', *, *, #246, .T. ) ;
#373 = FACE_OUTER_BOUND ( 'NONE', #277, .T. ) ;
ENDSEC;
END-ISO-10303-21;
