ISO-10303-21;
HEADER;
FILE_DESCRIPTION (( 'STEP AP203' ),
    '1' );
FILE_NAME ('A_1732-048.STEP',
    '2021-05-17T07:54:54',
    ( '' ),
    ( '' ),
    'SwSTEP 2.0',
    'SolidWorks 2019',
    '' );
FILE_SCHEMA (( 'CONFIG_CONTROL_DESIGN' ));
ENDSEC;

DATA;
#1 = AXIS2_PLACEMENT_3D ( 'NONE', #10, #121, #48 ) ;
#2 = APPROVAL ( #82, 'UNSPECIFIED' ) ;
#3 = UNCERTAINTY_MEASURE_WITH_UNIT (LENGTH_MEASURE( 1.000000000000000082E-05 ), #119, 'distance_accuracy_value', 'NONE');
#4 = VERTEX_POINT ( 'NONE', #86 ) ;
#5 = CIRCLE ( 'NONE', #29, 24.00000000000000355 ) ;
#6 = CC_DESIGN_PERSON_AND_ORGANIZATION_ASSIGNMENT ( #162, #145, ( #114 ) ) ;
#7 = APPLICATION_CONTEXT ( 'configuration controlled 3d designs of mechanical parts and assemblies' ) ;
#8 = ORIENTED_EDGE ( 'NONE', *, *, #71, .T. ) ;
#9 = ORIENTED_EDGE ( 'NONE', *, *, #39, .F. ) ;
#10 = CARTESIAN_POINT ( 'NONE',  ( 0.000000000000000000, 0.000000000000000000, 0.000000000000000000 ) ) ;
#11 = FACE_OUTER_BOUND ( 'NONE', #21, .T. ) ;
#12 = DATE_AND_TIME ( #124, #88 ) ;
#13 = CARTESIAN_POINT ( 'NONE',  ( 24.00000000000000355, 2.939152317953648289E-15, 0.000000000000000000 ) ) ;
#14 = PERSON_AND_ORGANIZATION_ROLE ( 'creator' ) ;
#15 = CARTESIAN_POINT ( 'NONE',  ( 0.000000000000000000, 0.000000000000000000, 4.000000000000000000 ) ) ;
#16 = VECTOR ( 'NONE', #76, 1000.000000000000000 ) ;
#17 = COORDINATED_UNIVERSAL_TIME_OFFSET ( 1, 0, .AHEAD. ) ;
#18 = DATE_AND_TIME ( #113, #22 ) ;
#19 = ORIENTED_EDGE ( 'NONE', *, *, #136, .F. ) ;
#20 = AXIS2_PLACEMENT_3D ( 'NONE', #137, #31, #172 ) ;
#21 = EDGE_LOOP ( 'NONE', ( #9, #168, #8, #166 ) ) ;
#22 = LOCAL_TIME ( 9, 54, 54.00000000000000000, #17 ) ;
#23 = DIRECTION ( 'NONE',  ( 0.000000000000000000, 0.000000000000000000, 1.000000000000000000 ) ) ;
#24 = CC_DESIGN_DATE_AND_TIME_ASSIGNMENT ( #83, #73, ( #96 ) ) ;
#25 = DIRECTION ( 'NONE',  ( -0.000000000000000000, -0.000000000000000000, -1.000000000000000000 ) ) ;
#26 = FACE_OUTER_BOUND ( 'NONE', #98, .T. ) ;
#27 = COORDINATED_UNIVERSAL_TIME_OFFSET ( 1, 0, .AHEAD. ) ;
#28 = PERSON_AND_ORGANIZATION ( #151, #142 ) ;
#29 = AXIS2_PLACEMENT_3D ( 'NONE', #105, #23, #38 ) ;
#30 = CALENDAR_DATE ( 2021, 17, 5 ) ;
#31 = DIRECTION ( 'NONE',  ( -0.000000000000000000, -0.000000000000000000, -1.000000000000000000 ) ) ;
#32 = LOCAL_TIME ( 9, 54, 54.00000000000000000, #150 ) ;
#33 = DESIGN_CONTEXT ( 'detailed design', #41, 'design' ) ;
#34 = ADVANCED_BREP_SHAPE_REPRESENTATION ( 'A_1732-048', ( #107, #174 ), #57 ) ;
#35 = APPROVAL_PERSON_ORGANIZATION ( #149, #2, #110 ) ;
#36 = LINE ( 'NONE', #60, #16 ) ;
#37 = CARTESIAN_POINT ( 'NONE',  ( -24.00000000000000355, 0.000000000000000000, 4.000000000000000000 ) ) ;
#38 = DIRECTION ( 'NONE',  ( 1.000000000000000000, 0.000000000000000000, 0.000000000000000000 ) ) ;
#39 = EDGE_CURVE ( 'NONE', #4, #58, #36, .T. ) ;
#40 = PERSON_AND_ORGANIZATION_ROLE ( 'classification_officer' ) ;
#41 = APPLICATION_CONTEXT ( 'configuration controlled 3d designs of mechanical parts and assemblies' ) ;
#42 = APPLICATION_PROTOCOL_DEFINITION ( 'international standard', 'config_control_design', 1994, #41 ) ;
#43 = ADVANCED_FACE ( 'NONE', ( #11 ), #63, .T. ) ;
#44 = CC_DESIGN_DATE_AND_TIME_ASSIGNMENT ( #108, #160, ( #127 ) ) ;
#45 = PRODUCT_DEFINITION_SHAPE ( 'NONE', 'NONE',  #127 ) ;
#46 = ORIENTED_EDGE ( 'NONE', *, *, #97, .T. ) ;
#47 = EDGE_LOOP ( 'NONE', ( #46, #129 ) ) ;
#48 = DIRECTION ( 'NONE',  ( 1.000000000000000000, 0.000000000000000000, -0.000000000000000000 ) ) ;
#49 = COORDINATED_UNIVERSAL_TIME_OFFSET ( 1, 0, .AHEAD. ) ;
#50 = PLANE ( 'NONE',  #1 ) ;
#51 = ADVANCED_FACE ( 'NONE', ( #118 ), #50, .F. ) ;
#52 = PERSON_AND_ORGANIZATION ( #151, #142 ) ;
#53 = LOCAL_TIME ( 9, 54, 54.00000000000000000, #27 ) ;
#54 = APPROVAL_DATE_TIME ( #12, #2 ) ;
#55 = CARTESIAN_POINT ( 'NONE',  ( -24.00000000000000355, 0.000000000000000000, 0.000000000000000000 ) ) ;
#56 = APPROVAL_DATE_TIME ( #18, #159 ) ;
#57 =( GEOMETRIC_REPRESENTATION_CONTEXT ( 3 ) GLOBAL_UNCERTAINTY_ASSIGNED_CONTEXT ( ( #3 ) ) GLOBAL_UNIT_ASSIGNED_CONTEXT ( ( #119, #66, #175 ) ) REPRESENTATION_CONTEXT ( 'NONE', 'WORKASPACE' ) );
#58 = VERTEX_POINT ( 'NONE', #13 ) ;
#59 = ORIENTED_EDGE ( 'NONE', *, *, #100, .F. ) ;
#60 = CARTESIAN_POINT ( 'NONE',  ( 24.00000000000000355, 2.939152317953648289E-15, 4.000000000000000000 ) ) ;
#61 = DIRECTION ( 'NONE',  ( 1.000000000000000000, 0.000000000000000000, 0.000000000000000000 ) ) ;
#62 = CC_DESIGN_APPROVAL ( #2, ( #127 ) ) ;
#63 = CYLINDRICAL_SURFACE ( 'NONE', #126, 24.00000000000000355 ) ;
#64 = MECHANICAL_CONTEXT ( 'NONE', #7, 'mechanical' ) ;
#65 = LINE ( 'NONE', #155, #165 ) ;
#66 =( NAMED_UNIT ( * ) PLANE_ANGLE_UNIT ( ) SI_UNIT ( $, .RADIAN. ) );
#67 = SECURITY_CLASSIFICATION_LEVEL ( 'unclassified' ) ;
#68 = ADVANCED_FACE ( 'NONE', ( #103 ), #169, .T. ) ;
#69 = APPROVAL_PERSON_ORGANIZATION ( #140, #159, #72 ) ;
#70 = APPROVAL_STATUS ( 'not_yet_approved' ) ;
#71 = EDGE_CURVE ( 'NONE', #74, #152, #65, .T. ) ;
#72 = APPROVAL_ROLE ( '' ) ;
#73 = DATE_TIME_ROLE ( 'classification_date' ) ;
#74 = VERTEX_POINT ( 'NONE', #37 ) ;
#75 = AXIS2_PLACEMENT_3D ( 'NONE', #15, #156, #61 ) ;
#76 = DIRECTION ( 'NONE',  ( -0.000000000000000000, -0.000000000000000000, -1.000000000000000000 ) ) ;
#77 = DIRECTION ( 'NONE',  ( 0.000000000000000000, 0.000000000000000000, 1.000000000000000000 ) ) ;
#78 = CARTESIAN_POINT ( 'NONE',  ( 0.000000000000000000, 0.000000000000000000, 0.000000000000000000 ) ) ;
#79 = CYLINDRICAL_SURFACE ( 'NONE', #20, 24.00000000000000355 ) ;
#80 = CC_DESIGN_PERSON_AND_ORGANIZATION_ASSIGNMENT ( #28, #123, ( #154 ) ) ;
#81 = DATE_AND_TIME ( #161, #53 ) ;
#82 = APPROVAL_STATUS ( 'not_yet_approved' ) ;
#83 = DATE_AND_TIME ( #30, #32 ) ;
#84 = DIRECTION ( 'NONE',  ( 0.000000000000000000, 0.000000000000000000, 1.000000000000000000 ) ) ;
#85 = CC_DESIGN_PERSON_AND_ORGANIZATION_ASSIGNMENT ( #52, #40, ( #96 ) ) ;
#86 = CARTESIAN_POINT ( 'NONE',  ( 24.00000000000000355, 2.939152317953648289E-15, 4.000000000000000000 ) ) ;
#87 = LOCAL_TIME ( 9, 54, 54.00000000000000000, #106 ) ;
#88 = LOCAL_TIME ( 9, 54, 54.00000000000000000, #49 ) ;
#89 = DIRECTION ( 'NONE',  ( -0.000000000000000000, -0.000000000000000000, -1.000000000000000000 ) ) ;
#90 = DIRECTION ( 'NONE',  ( 0.000000000000000000, 0.000000000000000000, 1.000000000000000000 ) ) ;
#91 = APPROVAL ( #70, 'UNSPECIFIED' ) ;
#92 = CARTESIAN_POINT ( 'NONE',  ( 0.000000000000000000, 0.000000000000000000, 0.000000000000000000 ) ) ;
#93 = PERSON_AND_ORGANIZATION_ROLE ( 'creator' ) ;
#94 = CC_DESIGN_APPROVAL ( #159, ( #96 ) ) ;
#95 = PRODUCT_RELATED_PRODUCT_CATEGORY ( 'detail', '', ( #114 ) ) ;
#96 = SECURITY_CLASSIFICATION ( '', '', #67 ) ;
#97 = EDGE_CURVE ( 'NONE', #74, #4, #5, .T. ) ;
#98 = EDGE_LOOP ( 'NONE', ( #19, #153, #117, #128 ) ) ;
#99 = EDGE_LOOP ( 'NONE', ( #59, #116 ) ) ;
#100 = EDGE_CURVE ( 'NONE', #152, #58, #167, .T. ) ;
#101 = EDGE_CURVE ( 'NONE', #58, #152, #120, .T. ) ;
#102 = APPROVAL_PERSON_ORGANIZATION ( #158, #91, #147 ) ;
#103 = FACE_OUTER_BOUND ( 'NONE', #47, .T. ) ;
#104 = CC_DESIGN_PERSON_AND_ORGANIZATION_ASSIGNMENT ( #138, #14, ( #154 ) ) ;
#105 = CARTESIAN_POINT ( 'NONE',  ( 0.000000000000000000, 0.000000000000000000, 4.000000000000000000 ) ) ;
#106 = COORDINATED_UNIVERSAL_TIME_OFFSET ( 1, 0, .AHEAD. ) ;
#107 = MANIFOLD_SOLID_BREP ( 'Boss-Extrude1', #148 ) ;
#108 = DATE_AND_TIME ( #109, #87 ) ;
#109 = CALENDAR_DATE ( 2021, 17, 5 ) ;
#110 = APPROVAL_ROLE ( '' ) ;
#111 = SHAPE_DEFINITION_REPRESENTATION ( #45, #34 ) ;
#112 = CC_DESIGN_PERSON_AND_ORGANIZATION_ASSIGNMENT ( #171, #93, ( #127 ) ) ;
#113 = CALENDAR_DATE ( 2021, 17, 5 ) ;
#114 = PRODUCT ( 'A_1732-048', 'A_1732-048', '', ( #64 ) ) ;
#115 = AXIS2_PLACEMENT_3D ( 'NONE', #170, #157, #134 ) ;
#116 = ORIENTED_EDGE ( 'NONE', *, *, #101, .F. ) ;
#117 = ORIENTED_EDGE ( 'NONE', *, *, #101, .T. ) ;
#118 = FACE_OUTER_BOUND ( 'NONE', #99, .T. ) ;
#119 =( LENGTH_UNIT ( ) NAMED_UNIT ( * ) SI_UNIT ( .MILLI., .METRE. ) );
#120 = CIRCLE ( 'NONE', #141, 24.00000000000000355 ) ;
#121 = DIRECTION ( 'NONE',  ( 0.000000000000000000, 0.000000000000000000, 1.000000000000000000 ) ) ;
#122 = DIRECTION ( 'NONE',  ( 1.000000000000000000, 0.000000000000000000, 0.000000000000000000 ) ) ;
#123 = PERSON_AND_ORGANIZATION_ROLE ( 'design_supplier' ) ;
#124 = CALENDAR_DATE ( 2021, 17, 5 ) ;
#125 = CC_DESIGN_SECURITY_CLASSIFICATION ( #96, ( #154 ) ) ;
#126 = AXIS2_PLACEMENT_3D ( 'NONE', #143, #25, #146 ) ;
#127 = PRODUCT_DEFINITION ( 'UNKNOWN', '', #154, #33 ) ;
#128 = ORIENTED_EDGE ( 'NONE', *, *, #71, .F. ) ;
#129 = ORIENTED_EDGE ( 'NONE', *, *, #136, .T. ) ;
#130 = CIRCLE ( 'NONE', #75, 24.00000000000000355 ) ;
#131 = ADVANCED_FACE ( 'NONE', ( #26 ), #79, .T. ) ;
#132 = CARTESIAN_POINT ( 'NONE',  ( 0.000000000000000000, 0.000000000000000000, 0.000000000000000000 ) ) ;
#133 = DIRECTION ( 'NONE',  ( 1.000000000000000000, 0.000000000000000000, 0.000000000000000000 ) ) ;
#134 = DIRECTION ( 'NONE',  ( 1.000000000000000000, 0.000000000000000000, -0.000000000000000000 ) ) ;
#135 = APPROVAL_DATE_TIME ( #81, #91 ) ;
#136 = EDGE_CURVE ( 'NONE', #4, #74, #130, .T. ) ;
#137 = CARTESIAN_POINT ( 'NONE',  ( 0.000000000000000000, 0.000000000000000000, 4.000000000000000000 ) ) ;
#138 = PERSON_AND_ORGANIZATION ( #151, #142 ) ;
#139 = AXIS2_PLACEMENT_3D ( 'NONE', #132, #90, #144 ) ;
#140 = PERSON_AND_ORGANIZATION ( #151, #142 ) ;
#141 = AXIS2_PLACEMENT_3D ( 'NONE', #92, #77, #133 ) ;
#142 = ORGANIZATION ( 'UNSPECIFIED', 'UNSPECIFIED', '' ) ;
#143 = CARTESIAN_POINT ( 'NONE',  ( 0.000000000000000000, 0.000000000000000000, 4.000000000000000000 ) ) ;
#144 = DIRECTION ( 'NONE',  ( 1.000000000000000000, 0.000000000000000000, 0.000000000000000000 ) ) ;
#145 = PERSON_AND_ORGANIZATION_ROLE ( 'design_owner' ) ;
#146 = DIRECTION ( 'NONE',  ( -1.000000000000000000, 0.000000000000000000, 0.000000000000000000 ) ) ;
#147 = APPROVAL_ROLE ( '' ) ;
#148 = CLOSED_SHELL ( 'NONE', ( #131, #43, #68, #51 ) ) ;
#149 = PERSON_AND_ORGANIZATION ( #151, #142 ) ;
#150 = COORDINATED_UNIVERSAL_TIME_OFFSET ( 1, 0, .AHEAD. ) ;
#151 = PERSON ( 'UNSPECIFIED', 'UNSPECIFIED', 'UNSPECIFIED', ('UNSPECIFIED'), ('UNSPECIFIED'), ('UNSPECIFIED') ) ;
#152 = VERTEX_POINT ( 'NONE', #55 ) ;
#153 = ORIENTED_EDGE ( 'NONE', *, *, #39, .T. ) ;
#154 = PRODUCT_DEFINITION_FORMATION_WITH_SPECIFIED_SOURCE ( 'ANY', '', #114, .NOT_KNOWN. ) ;
#155 = CARTESIAN_POINT ( 'NONE',  ( -24.00000000000000355, 0.000000000000000000, 4.000000000000000000 ) ) ;
#156 = DIRECTION ( 'NONE',  ( 0.000000000000000000, 0.000000000000000000, 1.000000000000000000 ) ) ;
#157 = DIRECTION ( 'NONE',  ( 0.000000000000000000, 0.000000000000000000, 1.000000000000000000 ) ) ;
#158 = PERSON_AND_ORGANIZATION ( #151, #142 ) ;
#159 = APPROVAL ( #164, 'UNSPECIFIED' ) ;
#160 = DATE_TIME_ROLE ( 'creation_date' ) ;
#161 = CALENDAR_DATE ( 2021, 17, 5 ) ;
#162 = PERSON_AND_ORGANIZATION ( #151, #142 ) ;
#163 = CC_DESIGN_APPROVAL ( #91, ( #154 ) ) ;
#164 = APPROVAL_STATUS ( 'not_yet_approved' ) ;
#165 = VECTOR ( 'NONE', #89, 1000.000000000000000 ) ;
#166 = ORIENTED_EDGE ( 'NONE', *, *, #100, .T. ) ;
#167 = CIRCLE ( 'NONE', #139, 24.00000000000000355 ) ;
#168 = ORIENTED_EDGE ( 'NONE', *, *, #97, .F. ) ;
#169 = PLANE ( 'NONE',  #115 ) ;
#170 = CARTESIAN_POINT ( 'NONE',  ( 0.000000000000000000, 0.000000000000000000, 4.000000000000000000 ) ) ;
#171 = PERSON_AND_ORGANIZATION ( #151, #142 ) ;
#172 = DIRECTION ( 'NONE',  ( -1.000000000000000000, 0.000000000000000000, 0.000000000000000000 ) ) ;
#173 = APPLICATION_PROTOCOL_DEFINITION ( 'international standard', 'config_control_design', 1994, #7 ) ;
#174 = AXIS2_PLACEMENT_3D ( 'NONE', #78, #84, #122 ) ;
#175 =( NAMED_UNIT ( * ) SI_UNIT ( $, .STERADIAN. ) SOLID_ANGLE_UNIT ( ) );
ENDSEC;
END-ISO-10303-21;
