ISO-10303-21;
HEADER;
FILE_DESCRIPTION (( 'STEP AP203' ),
    '1' );
FILE_NAME ('A_1732-042.STEP',
    '2023-02-22T12:41:23',
    ( '' ),
    ( '' ),
    'SwSTEP 2.0',
    'SolidWorks 2019',
    '' );
FILE_SCHEMA (( 'CONFIG_CONTROL_DESIGN' ));
ENDSEC;

DATA;
#1 = PRODUCT_DEFINITION_FORMATION_WITH_SPECIFIED_SOURCE ( 'LIBOVOLNÝ', '', #109, .NOT_KNOWN. ) ;
#2 = ORIENTED_EDGE ( 'NONE', *, *, #55, .T. ) ;
#3 = CIRCLE ( 'NONE', #130, 21.19999999999999929 ) ;
#4 = UNCERTAINTY_MEASURE_WITH_UNIT (LENGTH_MEASURE( 1.000000000000000082E-05 ), #92, 'distance_accuracy_value', 'NONE');
#5 = CARTESIAN_POINT ( 'NONE',  ( 0.000000000000000000, 0.000000000000000000, 0.000000000000000000 ) ) ;
#6 = ORIENTED_EDGE ( 'NONE', *, *, #46, .T. ) ;
#7 = PERSON_AND_ORGANIZATION ( #132, #163 ) ;
#8 = CARTESIAN_POINT ( 'NONE',  ( 0.000000000000000000, 0.000000000000000000, 4.000000000000000000 ) ) ;
#9 = CC_DESIGN_APPROVAL ( #90, ( #169 ) ) ;
#10 = APPROVAL_ROLE ( '' ) ;
#11 =( GEOMETRIC_REPRESENTATION_CONTEXT ( 3 ) GLOBAL_UNCERTAINTY_ASSIGNED_CONTEXT ( ( #4 ) ) GLOBAL_UNIT_ASSIGNED_CONTEXT ( ( #92, #53, #104 ) ) REPRESENTATION_CONTEXT ( 'NONE', 'WORKASPACE' ) );
#12 = PERSON_AND_ORGANIZATION ( #132, #163 ) ;
#13 = ADVANCED_FACE ( 'NONE', ( #51 ), #101, .T. ) ;
#14 = APPROVAL_PERSON_ORGANIZATION ( #39, #90, #43 ) ;
#15 = CC_DESIGN_DATE_AND_TIME_ASSIGNMENT ( #119, #103, ( #137 ) ) ;
#16 = LINE ( 'NONE', #128, #47 ) ;
#17 = FACE_OUTER_BOUND ( 'NONE', #153, .T. ) ;
#18 = DIRECTION ( 'NONE',  ( 0.000000000000000000, 0.000000000000000000, 1.000000000000000000 ) ) ;
#19 = CALENDAR_DATE ( 2023, 22, 2 ) ;
#20 = CIRCLE ( 'NONE', #85, 21.19999999999999929 ) ;
#21 = CARTESIAN_POINT ( 'NONE',  ( 0.000000000000000000, 0.000000000000000000, 0.000000000000000000 ) ) ;
#22 = DIRECTION ( 'NONE',  ( 1.000000000000000000, 0.000000000000000000, 0.000000000000000000 ) ) ;
#23 = DIRECTION ( 'NONE',  ( 1.000000000000000000, 0.000000000000000000, -0.000000000000000000 ) ) ;
#24 = DATE_TIME_ROLE ( 'creation_date' ) ;
#25 = CIRCLE ( 'NONE', #125, 21.19999999999999929 ) ;
#26 = EDGE_LOOP ( 'NONE', ( #86, #98 ) ) ;
#27 = APPROVAL_DATE_TIME ( #159, #90 ) ;
#28 = LOCAL_TIME ( 13, 41, 23.00000000000000000, #124 ) ;
#29 = CC_DESIGN_PERSON_AND_ORGANIZATION_ASSIGNMENT ( #173, #135, ( #1 ) ) ;
#30 = CLOSED_SHELL ( 'NONE', ( #175, #13, #79, #145 ) ) ;
#31 = CC_DESIGN_PERSON_AND_ORGANIZATION_ASSIGNMENT ( #80, #172, ( #109 ) ) ;
#32 = LOCAL_TIME ( 13, 41, 23.00000000000000000, #162 ) ;
#33 = EDGE_LOOP ( 'NONE', ( #6, #36 ) ) ;
#34 = CARTESIAN_POINT ( 'NONE',  ( 0.000000000000000000, 0.000000000000000000, 4.000000000000000000 ) ) ;
#35 = DIRECTION ( 'NONE',  ( -0.000000000000000000, -0.000000000000000000, -1.000000000000000000 ) ) ;
#36 = ORIENTED_EDGE ( 'NONE', *, *, #126, .T. ) ;
#37 = DATE_AND_TIME ( #144, #127 ) ;
#38 = CARTESIAN_POINT ( 'NONE',  ( -21.19999999999999929, 0.000000000000000000, 4.000000000000000000 ) ) ;
#39 = PERSON_AND_ORGANIZATION ( #132, #163 ) ;
#40 = APPROVAL_ROLE ( '' ) ;
#41 = APPLICATION_PROTOCOL_DEFINITION ( 'international standard', 'config_control_design', 1994, #164 ) ;
#42 = COORDINATED_UNIVERSAL_TIME_OFFSET ( 1, 0, .AHEAD. ) ;
#43 = APPROVAL_ROLE ( '' ) ;
#44 = AXIS2_PLACEMENT_3D ( 'NONE', #8, #64, #116 ) ;
#45 = MANIFOLD_SOLID_BREP ( 'Pøidat vysunutím1', #30 ) ;
#46 = EDGE_CURVE ( 'NONE', #87, #65, #3, .T. ) ;
#47 = VECTOR ( 'NONE', #48, 1000.000000000000000 ) ;
#48 = DIRECTION ( 'NONE',  ( -0.000000000000000000, -0.000000000000000000, -1.000000000000000000 ) ) ;
#49 = CC_DESIGN_APPROVAL ( #151, ( #137 ) ) ;
#50 = LINE ( 'NONE', #121, #59 ) ;
#51 = FACE_OUTER_BOUND ( 'NONE', #117, .T. ) ;
#52 = DIRECTION ( 'NONE',  ( 1.000000000000000000, 0.000000000000000000, -0.000000000000000000 ) ) ;
#53 =( NAMED_UNIT ( * ) PLANE_ANGLE_UNIT ( ) SI_UNIT ( $, .RADIAN. ) );
#54 = DIRECTION ( 'NONE',  ( 1.000000000000000000, 0.000000000000000000, 0.000000000000000000 ) ) ;
#55 = EDGE_CURVE ( 'NONE', #114, #115, #20, .T. ) ;
#56 = PERSON_AND_ORGANIZATION ( #132, #163 ) ;
#57 = ORIENTED_EDGE ( 'NONE', *, *, #61, .F. ) ;
#58 = PERSON_AND_ORGANIZATION ( #132, #163 ) ;
#59 = VECTOR ( 'NONE', #155, 1000.000000000000000 ) ;
#60 = CC_DESIGN_APPROVAL ( #107, ( #1 ) ) ;
#61 = EDGE_CURVE ( 'NONE', #65, #115, #16, .T. ) ;
#62 = CARTESIAN_POINT ( 'NONE',  ( 0.000000000000000000, 0.000000000000000000, 4.000000000000000000 ) ) ;
#63 = CIRCLE ( 'NONE', #113, 21.19999999999999929 ) ;
#64 = DIRECTION ( 'NONE',  ( -0.000000000000000000, -0.000000000000000000, -1.000000000000000000 ) ) ;
#65 = VERTEX_POINT ( 'NONE', #152 ) ;
#66 = DIRECTION ( 'NONE',  ( 0.000000000000000000, 0.000000000000000000, 1.000000000000000000 ) ) ;
#67 = ORIENTED_EDGE ( 'NONE', *, *, #46, .F. ) ;
#68 = CC_DESIGN_PERSON_AND_ORGANIZATION_ASSIGNMENT ( #56, #105, ( #137 ) ) ;
#69 = DIRECTION ( 'NONE',  ( 0.000000000000000000, 0.000000000000000000, 1.000000000000000000 ) ) ;
#70 = PERSON_AND_ORGANIZATION_ROLE ( 'design_supplier' ) ;
#71 = ORIENTED_EDGE ( 'NONE', *, *, #61, .T. ) ;
#72 = SECURITY_CLASSIFICATION_LEVEL ( 'unclassified' ) ;
#73 = AXIS2_PLACEMENT_3D ( 'NONE', #21, #66, #23 ) ;
#74 = DIRECTION ( 'NONE',  ( 0.000000000000000000, 0.000000000000000000, 1.000000000000000000 ) ) ;
#75 = CYLINDRICAL_SURFACE ( 'NONE', #44, 21.19999999999999929 ) ;
#76 = DIRECTION ( 'NONE',  ( 1.000000000000000000, 0.000000000000000000, 0.000000000000000000 ) ) ;
#77 = SHAPE_DEFINITION_REPRESENTATION ( #108, #147 ) ;
#78 = DIRECTION ( 'NONE',  ( 0.000000000000000000, 0.000000000000000000, 1.000000000000000000 ) ) ;
#79 = ADVANCED_FACE ( 'NONE', ( #131 ), #102, .T. ) ;
#80 = PERSON_AND_ORGANIZATION ( #132, #163 ) ;
#81 = DATE_AND_TIME ( #160, #120 ) ;
#82 = APPROVAL_STATUS ( 'not_yet_approved' ) ;
#83 = LOCAL_TIME ( 13, 41, 23.00000000000000000, #174 ) ;
#84 = EDGE_CURVE ( 'NONE', #87, #114, #50, .T. ) ;
#85 = AXIS2_PLACEMENT_3D ( 'NONE', #165, #74, #76 ) ;
#86 = ORIENTED_EDGE ( 'NONE', *, *, #55, .F. ) ;
#87 = VERTEX_POINT ( 'NONE', #38 ) ;
#88 = CARTESIAN_POINT ( 'NONE',  ( -21.19999999999999929, 0.000000000000000000, 0.000000000000000000 ) ) ;
#89 = ORIENTED_EDGE ( 'NONE', *, *, #126, .F. ) ;
#90 = APPROVAL ( #94, 'NEURÈENÝ' ) ;
#91 = DIRECTION ( 'NONE',  ( 1.000000000000000000, 0.000000000000000000, 0.000000000000000000 ) ) ;
#92 =( LENGTH_UNIT ( ) NAMED_UNIT ( * ) SI_UNIT ( .MILLI., .METRE. ) );
#93 = COORDINATED_UNIVERSAL_TIME_OFFSET ( 1, 0, .AHEAD. ) ;
#94 = APPROVAL_STATUS ( 'not_yet_approved' ) ;
#95 = PERSON_AND_ORGANIZATION ( #132, #163 ) ;
#96 = CC_DESIGN_DATE_AND_TIME_ASSIGNMENT ( #148, #24, ( #169 ) ) ;
#97 = ORIENTED_EDGE ( 'NONE', *, *, #112, .T. ) ;
#98 = ORIENTED_EDGE ( 'NONE', *, *, #112, .F. ) ;
#99 = APPROVAL_PERSON_ORGANIZATION ( #58, #107, #10 ) ;
#100 = DIRECTION ( 'NONE',  ( 0.000000000000000000, 0.000000000000000000, 1.000000000000000000 ) ) ;
#101 = CYLINDRICAL_SURFACE ( 'NONE', #161, 21.19999999999999929 ) ;
#102 = PLANE ( 'NONE',  #150 ) ;
#103 = DATE_TIME_ROLE ( 'classification_date' ) ;
#104 =( NAMED_UNIT ( * ) SI_UNIT ( $, .STERADIAN. ) SOLID_ANGLE_UNIT ( ) );
#105 = PERSON_AND_ORGANIZATION_ROLE ( 'classification_officer' ) ;
#106 = CALENDAR_DATE ( 2023, 22, 2 ) ;
#107 = APPROVAL ( #82, 'NEURÈENÝ' ) ;
#108 = PRODUCT_DEFINITION_SHAPE ( 'NONE', 'NONE',  #169 ) ;
#109 = PRODUCT ( 'A_1732-042', 'A_1732-042', '', ( #122 ) ) ;
#110 = DESIGN_CONTEXT ( 'detailed design', #136, 'design' ) ;
#111 = AXIS2_PLACEMENT_3D ( 'NONE', #171, #69, #54 ) ;
#112 = EDGE_CURVE ( 'NONE', #115, #114, #63, .T. ) ;
#113 = AXIS2_PLACEMENT_3D ( 'NONE', #5, #100, #91 ) ;
#114 = VERTEX_POINT ( 'NONE', #88 ) ;
#115 = VERTEX_POINT ( 'NONE', #143 ) ;
#116 = DIRECTION ( 'NONE',  ( -1.000000000000000000, 0.000000000000000000, 0.000000000000000000 ) ) ;
#117 = EDGE_LOOP ( 'NONE', ( #57, #67, #166, #2 ) ) ;
#118 = PRODUCT_RELATED_PRODUCT_CATEGORY ( 'detail', '', ( #109 ) ) ;
#119 = DATE_AND_TIME ( #19, #28 ) ;
#120 = LOCAL_TIME ( 13, 41, 23.00000000000000000, #42 ) ;
#121 = CARTESIAN_POINT ( 'NONE',  ( -21.19999999999999929, 0.000000000000000000, 4.000000000000000000 ) ) ;
#122 = MECHANICAL_CONTEXT ( 'NONE', #164, 'mechanical' ) ;
#123 = PERSON_AND_ORGANIZATION_ROLE ( 'creator' ) ;
#124 = COORDINATED_UNIVERSAL_TIME_OFFSET ( 1, 0, .AHEAD. ) ;
#125 = AXIS2_PLACEMENT_3D ( 'NONE', #129, #78, #154 ) ;
#126 = EDGE_CURVE ( 'NONE', #65, #87, #25, .T. ) ;
#127 = LOCAL_TIME ( 13, 41, 23.00000000000000000, #93 ) ;
#128 = CARTESIAN_POINT ( 'NONE',  ( 21.19999999999999929, 2.596251214192388770E-15, 4.000000000000000000 ) ) ;
#129 = CARTESIAN_POINT ( 'NONE',  ( 0.000000000000000000, 0.000000000000000000, 4.000000000000000000 ) ) ;
#130 = AXIS2_PLACEMENT_3D ( 'NONE', #139, #18, #22 ) ;
#131 = FACE_OUTER_BOUND ( 'NONE', #33, .T. ) ;
#132 = PERSON ( 'NEURÈENÝ', 'NEURÈENÝ', 'NEURÈENÝ', ('NEURÈENÝ'), ('NEURÈENÝ'), ('NEURÈENÝ') ) ;
#133 = PLANE ( 'NONE',  #73 ) ;
#134 = APPROVAL_DATE_TIME ( #81, #107 ) ;
#135 = PERSON_AND_ORGANIZATION_ROLE ( 'creator' ) ;
#136 = APPLICATION_CONTEXT ( 'configuration controlled 3d designs of mechanical parts and assemblies' ) ;
#137 = SECURITY_CLASSIFICATION ( '', '', #72 ) ;
#138 = CC_DESIGN_PERSON_AND_ORGANIZATION_ASSIGNMENT ( #95, #123, ( #169 ) ) ;
#139 = CARTESIAN_POINT ( 'NONE',  ( 0.000000000000000000, 0.000000000000000000, 4.000000000000000000 ) ) ;
#140 = APPROVAL_DATE_TIME ( #37, #151 ) ;
#141 = FACE_OUTER_BOUND ( 'NONE', #26, .T. ) ;
#142 = DIRECTION ( 'NONE',  ( -1.000000000000000000, 0.000000000000000000, 0.000000000000000000 ) ) ;
#143 = CARTESIAN_POINT ( 'NONE',  ( 21.19999999999999929, 2.596251214192388770E-15, 0.000000000000000000 ) ) ;
#144 = CALENDAR_DATE ( 2023, 22, 2 ) ;
#145 = ADVANCED_FACE ( 'NONE', ( #141 ), #133, .F. ) ;
#146 = CALENDAR_DATE ( 2023, 22, 2 ) ;
#147 = ADVANCED_BREP_SHAPE_REPRESENTATION ( 'A_1732-042', ( #45, #111 ), #11 ) ;
#148 = DATE_AND_TIME ( #146, #32 ) ;
#149 = CC_DESIGN_SECURITY_CLASSIFICATION ( #137, ( #1 ) ) ;
#150 = AXIS2_PLACEMENT_3D ( 'NONE', #34, #170, #52 ) ;
#151 = APPROVAL ( #158, 'NEURÈENÝ' ) ;
#152 = CARTESIAN_POINT ( 'NONE',  ( 21.19999999999999929, 2.596251214192388770E-15, 4.000000000000000000 ) ) ;
#153 = EDGE_LOOP ( 'NONE', ( #89, #71, #97, #167 ) ) ;
#154 = DIRECTION ( 'NONE',  ( 1.000000000000000000, 0.000000000000000000, 0.000000000000000000 ) ) ;
#155 = DIRECTION ( 'NONE',  ( -0.000000000000000000, -0.000000000000000000, -1.000000000000000000 ) ) ;
#156 = APPLICATION_PROTOCOL_DEFINITION ( 'international standard', 'config_control_design', 1994, #136 ) ;
#157 = CC_DESIGN_PERSON_AND_ORGANIZATION_ASSIGNMENT ( #12, #70, ( #1 ) ) ;
#158 = APPROVAL_STATUS ( 'not_yet_approved' ) ;
#159 = DATE_AND_TIME ( #106, #83 ) ;
#160 = CALENDAR_DATE ( 2023, 22, 2 ) ;
#161 = AXIS2_PLACEMENT_3D ( 'NONE', #62, #35, #142 ) ;
#162 = COORDINATED_UNIVERSAL_TIME_OFFSET ( 1, 0, .AHEAD. ) ;
#163 = ORGANIZATION ( 'NEURÈENÝ', 'NEURÈENÝ', '' ) ;
#164 = APPLICATION_CONTEXT ( 'configuration controlled 3d designs of mechanical parts and assemblies' ) ;
#165 = CARTESIAN_POINT ( 'NONE',  ( 0.000000000000000000, 0.000000000000000000, 0.000000000000000000 ) ) ;
#166 = ORIENTED_EDGE ( 'NONE', *, *, #84, .T. ) ;
#167 = ORIENTED_EDGE ( 'NONE', *, *, #84, .F. ) ;
#168 = APPROVAL_PERSON_ORGANIZATION ( #7, #151, #40 ) ;
#169 = PRODUCT_DEFINITION ( 'NEZNÁMÝ', '', #1, #110 ) ;
#170 = DIRECTION ( 'NONE',  ( 0.000000000000000000, 0.000000000000000000, 1.000000000000000000 ) ) ;
#171 = CARTESIAN_POINT ( 'NONE',  ( 0.000000000000000000, 0.000000000000000000, 0.000000000000000000 ) ) ;
#172 = PERSON_AND_ORGANIZATION_ROLE ( 'design_owner' ) ;
#173 = PERSON_AND_ORGANIZATION ( #132, #163 ) ;
#174 = COORDINATED_UNIVERSAL_TIME_OFFSET ( 1, 0, .AHEAD. ) ;
#175 = ADVANCED_FACE ( 'NONE', ( #17 ), #75, .T. ) ;
ENDSEC;
END-ISO-10303-21;
