ISO-10303-21;
HEADER;
FILE_DESCRIPTION (( 'STEP AP203' ),
    '1' );
FILE_NAME ('A_1732-033.STEP',
    '2024-02-12T07:48:11',
    ( '' ),
    ( '' ),
    'SwSTEP 2.0',
    'SolidWorks 2019',
    '' );
FILE_SCHEMA (( 'CONFIG_CONTROL_DESIGN' ));
ENDSEC;

DATA;
#1 = AXIS2_PLACEMENT_3D ( 'NONE', #17, #133, #2 ) ;
#2 = DIRECTION ( 'NONE',  ( -1.000000000000000000, 0.000000000000000000, 0.000000000000000000 ) ) ;
#3 = CALENDAR_DATE ( 2024, 12, 2 ) ;
#4 = FACE_OUTER_BOUND ( 'NONE', #152, .T. ) ;
#5 = ADVANCED_FACE ( 'NONE', ( #116 ), #103, .F. ) ;
#6 = APPROVAL_PERSON_ORGANIZATION ( #18, #159, #117 ) ;
#7 = DIRECTION ( 'NONE',  ( 0.000000000000000000, 0.000000000000000000, 1.000000000000000000 ) ) ;
#8 = CC_DESIGN_PERSON_AND_ORGANIZATION_ASSIGNMENT ( #127, #165, ( #91 ) ) ;
#9 = CARTESIAN_POINT ( 'NONE',  ( 0.000000000000000000, 0.000000000000000000, 4.000000000000000000 ) ) ;
#10 = DATE_AND_TIME ( #86, #112 ) ;
#11 = SECURITY_CLASSIFICATION_LEVEL ( 'unclassified' ) ;
#12 = APPLICATION_CONTEXT ( 'configuration controlled 3d designs of mechanical parts and assemblies' ) ;
#13 = VERTEX_POINT ( 'NONE', #94 ) ;
#14 =( GEOMETRIC_REPRESENTATION_CONTEXT ( 3 ) GLOBAL_UNCERTAINTY_ASSIGNED_CONTEXT ( ( #142 ) ) GLOBAL_UNIT_ASSIGNED_CONTEXT ( ( #172, #49, #108 ) ) REPRESENTATION_CONTEXT ( 'NONE', 'WORKASPACE' ) );
#15 = CIRCLE ( 'NONE', #32, 16.50000000000000000 ) ;
#16 = ORIENTED_EDGE ( 'NONE', *, *, #56, .T. ) ;
#17 = CARTESIAN_POINT ( 'NONE',  ( 0.000000000000000000, 0.000000000000000000, 4.000000000000000000 ) ) ;
#18 = PERSON_AND_ORGANIZATION ( #98, #19 ) ;
#19 = ORGANIZATION ( 'NEURÈENÝ', 'NEURÈENÝ', '' ) ;
#20 = DIRECTION ( 'NONE',  ( 1.000000000000000000, 0.000000000000000000, 0.000000000000000000 ) ) ;
#21 = PERSON_AND_ORGANIZATION_ROLE ( 'design_owner' ) ;
#22 = DIRECTION ( 'NONE',  ( 0.000000000000000000, 0.000000000000000000, 1.000000000000000000 ) ) ;
#23 = PERSON_AND_ORGANIZATION_ROLE ( 'creator' ) ;
#24 = AXIS2_PLACEMENT_3D ( 'NONE', #157, #160, #20 ) ;
#25 = COORDINATED_UNIVERSAL_TIME_OFFSET ( 1, 0, .AHEAD. ) ;
#26 = ADVANCED_FACE ( 'NONE', ( #132 ), #141, .T. ) ;
#27 = APPROVAL_STATUS ( 'not_yet_approved' ) ;
#28 = SECURITY_CLASSIFICATION ( '', '', #11 ) ;
#29 = ORIENTED_EDGE ( 'NONE', *, *, #151, .T. ) ;
#30 = AXIS2_PLACEMENT_3D ( 'NONE', #121, #46, #50 ) ;
#31 = ORIENTED_EDGE ( 'NONE', *, *, #95, .T. ) ;
#32 = AXIS2_PLACEMENT_3D ( 'NONE', #80, #63, #120 ) ;
#33 = APPLICATION_PROTOCOL_DEFINITION ( 'international standard', 'config_control_design', 1994, #89 ) ;
#34 = MECHANICAL_CONTEXT ( 'NONE', #12, 'mechanical' ) ;
#35 = DATE_AND_TIME ( #110, #124 ) ;
#36 = DATE_AND_TIME ( #3, #163 ) ;
#37 = PRODUCT_DEFINITION ( 'NEZNÁMÝ', '', #91, #59 ) ;
#38 = PERSON_AND_ORGANIZATION_ROLE ( 'classification_officer' ) ;
#39 = PLANE ( 'NONE',  #148 ) ;
#40 = PRODUCT_DEFINITION_SHAPE ( 'NONE', 'NONE',  #37 ) ;
#41 = VERTEX_POINT ( 'NONE', #61 ) ;
#42 = ADVANCED_FACE ( 'NONE', ( #167 ), #39, .T. ) ;
#43 = DIRECTION ( 'NONE',  ( 1.000000000000000000, 0.000000000000000000, -0.000000000000000000 ) ) ;
#44 = CIRCLE ( 'NONE', #164, 16.50000000000000000 ) ;
#45 = APPROVAL ( #175, 'NEURÈENÝ' ) ;
#46 = DIRECTION ( 'NONE',  ( -0.000000000000000000, -0.000000000000000000, -1.000000000000000000 ) ) ;
#47 = DIRECTION ( 'NONE',  ( 0.000000000000000000, 0.000000000000000000, 1.000000000000000000 ) ) ;
#48 = AXIS2_PLACEMENT_3D ( 'NONE', #114, #75, #43 ) ;
#49 =( NAMED_UNIT ( * ) PLANE_ANGLE_UNIT ( ) SI_UNIT ( $, .RADIAN. ) );
#50 = DIRECTION ( 'NONE',  ( -1.000000000000000000, 0.000000000000000000, 0.000000000000000000 ) ) ;
#51 = PERSON_AND_ORGANIZATION ( #98, #19 ) ;
#52 = SHAPE_DEFINITION_REPRESENTATION ( #40, #62 ) ;
#53 = CALENDAR_DATE ( 2024, 12, 2 ) ;
#54 = VERTEX_POINT ( 'NONE', #143 ) ;
#55 = LOCAL_TIME ( 8, 48, 11.00000000000000000, #25 ) ;
#56 = EDGE_CURVE ( 'NONE', #41, #13, #65, .T. ) ;
#57 = EDGE_LOOP ( 'NONE', ( #138, #102 ) ) ;
#58 = ORIENTED_EDGE ( 'NONE', *, *, #171, .F. ) ;
#59 = DESIGN_CONTEXT ( 'detailed design', #89, 'design' ) ;
#60 = PRODUCT_RELATED_PRODUCT_CATEGORY ( 'detail', '', ( #87 ) ) ;
#61 = CARTESIAN_POINT ( 'NONE',  ( -16.50000000000000000, 0.000000000000000000, 0.000000000000000000 ) ) ;
#62 = ADVANCED_BREP_SHAPE_REPRESENTATION ( 'A_1732-033', ( #67, #24 ), #14 ) ;
#63 = DIRECTION ( 'NONE',  ( 0.000000000000000000, 0.000000000000000000, 1.000000000000000000 ) ) ;
#64 = CYLINDRICAL_SURFACE ( 'NONE', #30, 16.50000000000000000 ) ;
#65 = CIRCLE ( 'NONE', #81, 16.50000000000000000 ) ;
#66 = DIRECTION ( 'NONE',  ( 1.000000000000000000, 0.000000000000000000, -0.000000000000000000 ) ) ;
#67 = MANIFOLD_SOLID_BREP ( 'Pøidat vysunutím1', #84 ) ;
#68 = CARTESIAN_POINT ( 'NONE',  ( 16.50000000000000000, 2.020667218593133100E-15, 4.000000000000000000 ) ) ;
#69 = APPROVAL ( #27, 'NEURÈENÝ' ) ;
#70 = DATE_AND_TIME ( #144, #55 ) ;
#71 = APPROVAL_DATE_TIME ( #10, #69 ) ;
#72 = COORDINATED_UNIVERSAL_TIME_OFFSET ( 1, 0, .AHEAD. ) ;
#73 = AXIS2_PLACEMENT_3D ( 'NONE', #78, #122, #106 ) ;
#74 = CC_DESIGN_PERSON_AND_ORGANIZATION_ASSIGNMENT ( #51, #136, ( #91 ) ) ;
#75 = DIRECTION ( 'NONE',  ( 0.000000000000000000, 0.000000000000000000, 1.000000000000000000 ) ) ;
#76 = LINE ( 'NONE', #68, #115 ) ;
#77 = LINE ( 'NONE', #82, #92 ) ;
#78 = CARTESIAN_POINT ( 'NONE',  ( 0.000000000000000000, 0.000000000000000000, 4.000000000000000000 ) ) ;
#79 = CC_DESIGN_PERSON_AND_ORGANIZATION_ASSIGNMENT ( #97, #21, ( #87 ) ) ;
#80 = CARTESIAN_POINT ( 'NONE',  ( 0.000000000000000000, 0.000000000000000000, 4.000000000000000000 ) ) ;
#81 = AXIS2_PLACEMENT_3D ( 'NONE', #155, #7, #118 ) ;
#82 = CARTESIAN_POINT ( 'NONE',  ( -16.50000000000000000, 0.000000000000000000, 4.000000000000000000 ) ) ;
#83 = CC_DESIGN_PERSON_AND_ORGANIZATION_ASSIGNMENT ( #145, #23, ( #37 ) ) ;
#84 = CLOSED_SHELL ( 'NONE', ( #111, #26, #42, #5 ) ) ;
#85 = PERSON_AND_ORGANIZATION ( #98, #19 ) ;
#86 = CALENDAR_DATE ( 2024, 12, 2 ) ;
#87 = PRODUCT ( 'A_1732-033', 'A_1732-033', '', ( #34 ) ) ;
#88 = APPROVAL_PERSON_ORGANIZATION ( #166, #69, #174 ) ;
#89 = APPLICATION_CONTEXT ( 'configuration controlled 3d designs of mechanical parts and assemblies' ) ;
#90 = ORIENTED_EDGE ( 'NONE', *, *, #171, .T. ) ;
#91 = PRODUCT_DEFINITION_FORMATION_WITH_SPECIFIED_SOURCE ( 'LIBOVOLNÝ', '', #87, .NOT_KNOWN. ) ;
#92 = VECTOR ( 'NONE', #156, 1000.000000000000000 ) ;
#93 = ORIENTED_EDGE ( 'NONE', *, *, #125, .F. ) ;
#94 = CARTESIAN_POINT ( 'NONE',  ( 16.50000000000000000, 2.020667218593133100E-15, 0.000000000000000000 ) ) ;
#95 = EDGE_CURVE ( 'NONE', #13, #41, #44, .T. ) ;
#96 = COORDINATED_UNIVERSAL_TIME_OFFSET ( 1, 0, .AHEAD. ) ;
#97 = PERSON_AND_ORGANIZATION ( #98, #19 ) ;
#98 = PERSON ( 'NEURÈENÝ', 'NEURÈENÝ', 'NEURÈENÝ', ('NEURÈENÝ'), ('NEURÈENÝ'), ('NEURÈENÝ') ) ;
#99 = CC_DESIGN_DATE_AND_TIME_ASSIGNMENT ( #126, #146, ( #37 ) ) ;
#100 = CC_DESIGN_APPROVAL ( #159, ( #37 ) ) ;
#101 = EDGE_LOOP ( 'NONE', ( #93, #58, #29, #16 ) ) ;
#102 = ORIENTED_EDGE ( 'NONE', *, *, #95, .F. ) ;
#103 = PLANE ( 'NONE',  #48 ) ;
#104 = DIRECTION ( 'NONE',  ( 1.000000000000000000, 0.000000000000000000, 0.000000000000000000 ) ) ;
#105 = LOCAL_TIME ( 8, 48, 11.00000000000000000, #72 ) ;
#106 = DIRECTION ( 'NONE',  ( 1.000000000000000000, 0.000000000000000000, 0.000000000000000000 ) ) ;
#107 = CIRCLE ( 'NONE', #73, 16.50000000000000000 ) ;
#108 =( NAMED_UNIT ( * ) SI_UNIT ( $, .STERADIAN. ) SOLID_ANGLE_UNIT ( ) );
#109 = APPROVAL_DATE_TIME ( #36, #159 ) ;
#110 = CALENDAR_DATE ( 2024, 12, 2 ) ;
#111 = ADVANCED_FACE ( 'NONE', ( #4 ), #64, .T. ) ;
#112 = LOCAL_TIME ( 8, 48, 11.00000000000000000, #161 ) ;
#113 = CC_DESIGN_DATE_AND_TIME_ASSIGNMENT ( #70, #162, ( #28 ) ) ;
#114 = CARTESIAN_POINT ( 'NONE',  ( 0.000000000000000000, 0.000000000000000000, 0.000000000000000000 ) ) ;
#115 = VECTOR ( 'NONE', #158, 1000.000000000000000 ) ;
#116 = FACE_OUTER_BOUND ( 'NONE', #57, .T. ) ;
#117 = APPROVAL_ROLE ( '' ) ;
#118 = DIRECTION ( 'NONE',  ( 1.000000000000000000, 0.000000000000000000, 0.000000000000000000 ) ) ;
#119 = CC_DESIGN_SECURITY_CLASSIFICATION ( #28, ( #91 ) ) ;
#120 = DIRECTION ( 'NONE',  ( 1.000000000000000000, 0.000000000000000000, 0.000000000000000000 ) ) ;
#121 = CARTESIAN_POINT ( 'NONE',  ( 0.000000000000000000, 0.000000000000000000, 4.000000000000000000 ) ) ;
#122 = DIRECTION ( 'NONE',  ( 0.000000000000000000, 0.000000000000000000, 1.000000000000000000 ) ) ;
#123 = APPROVAL_ROLE ( '' ) ;
#124 = LOCAL_TIME ( 8, 48, 11.00000000000000000, #173 ) ;
#125 = EDGE_CURVE ( 'NONE', #54, #13, #76, .T. ) ;
#126 = DATE_AND_TIME ( #53, #105 ) ;
#127 = PERSON_AND_ORGANIZATION ( #98, #19 ) ;
#128 = CC_DESIGN_APPROVAL ( #45, ( #28 ) ) ;
#129 = PERSON_AND_ORGANIZATION ( #98, #19 ) ;
#130 = EDGE_LOOP ( 'NONE', ( #90, #131 ) ) ;
#131 = ORIENTED_EDGE ( 'NONE', *, *, #139, .T. ) ;
#132 = FACE_OUTER_BOUND ( 'NONE', #101, .T. ) ;
#133 = DIRECTION ( 'NONE',  ( -0.000000000000000000, -0.000000000000000000, -1.000000000000000000 ) ) ;
#134 = APPROVAL_STATUS ( 'not_yet_approved' ) ;
#135 = CARTESIAN_POINT ( 'NONE',  ( 0.000000000000000000, 0.000000000000000000, 0.000000000000000000 ) ) ;
#136 = PERSON_AND_ORGANIZATION_ROLE ( 'design_supplier' ) ;
#137 = ORIENTED_EDGE ( 'NONE', *, *, #125, .T. ) ;
#138 = ORIENTED_EDGE ( 'NONE', *, *, #56, .F. ) ;
#139 = EDGE_CURVE ( 'NONE', #54, #154, #15, .T. ) ;
#140 = CC_DESIGN_PERSON_AND_ORGANIZATION_ASSIGNMENT ( #85, #38, ( #28 ) ) ;
#141 = CYLINDRICAL_SURFACE ( 'NONE', #1, 16.50000000000000000 ) ;
#142 = UNCERTAINTY_MEASURE_WITH_UNIT (LENGTH_MEASURE( 1.000000000000000082E-05 ), #172, 'distance_accuracy_value', 'NONE');
#143 = CARTESIAN_POINT ( 'NONE',  ( 16.50000000000000000, 2.020667218593133100E-15, 4.000000000000000000 ) ) ;
#144 = CALENDAR_DATE ( 2024, 12, 2 ) ;
#145 = PERSON_AND_ORGANIZATION ( #98, #19 ) ;
#146 = DATE_TIME_ROLE ( 'creation_date' ) ;
#147 = APPROVAL_PERSON_ORGANIZATION ( #129, #45, #123 ) ;
#148 = AXIS2_PLACEMENT_3D ( 'NONE', #9, #47, #66 ) ;
#149 = APPROVAL_DATE_TIME ( #35, #45 ) ;
#150 = ORIENTED_EDGE ( 'NONE', *, *, #139, .F. ) ;
#151 = EDGE_CURVE ( 'NONE', #154, #41, #77, .T. ) ;
#152 = EDGE_LOOP ( 'NONE', ( #150, #137, #31, #168 ) ) ;
#153 = CC_DESIGN_APPROVAL ( #69, ( #91 ) ) ;
#154 = VERTEX_POINT ( 'NONE', #170 ) ;
#155 = CARTESIAN_POINT ( 'NONE',  ( 0.000000000000000000, 0.000000000000000000, 0.000000000000000000 ) ) ;
#156 = DIRECTION ( 'NONE',  ( -0.000000000000000000, -0.000000000000000000, -1.000000000000000000 ) ) ;
#157 = CARTESIAN_POINT ( 'NONE',  ( 0.000000000000000000, 0.000000000000000000, 0.000000000000000000 ) ) ;
#158 = DIRECTION ( 'NONE',  ( -0.000000000000000000, -0.000000000000000000, -1.000000000000000000 ) ) ;
#159 = APPROVAL ( #134, 'NEURÈENÝ' ) ;
#160 = DIRECTION ( 'NONE',  ( 0.000000000000000000, 0.000000000000000000, 1.000000000000000000 ) ) ;
#161 = COORDINATED_UNIVERSAL_TIME_OFFSET ( 1, 0, .AHEAD. ) ;
#162 = DATE_TIME_ROLE ( 'classification_date' ) ;
#163 = LOCAL_TIME ( 8, 48, 11.00000000000000000, #96 ) ;
#164 = AXIS2_PLACEMENT_3D ( 'NONE', #135, #22, #104 ) ;
#165 = PERSON_AND_ORGANIZATION_ROLE ( 'creator' ) ;
#166 = PERSON_AND_ORGANIZATION ( #98, #19 ) ;
#167 = FACE_OUTER_BOUND ( 'NONE', #130, .T. ) ;
#168 = ORIENTED_EDGE ( 'NONE', *, *, #151, .F. ) ;
#169 = APPLICATION_PROTOCOL_DEFINITION ( 'international standard', 'config_control_design', 1994, #12 ) ;
#170 = CARTESIAN_POINT ( 'NONE',  ( -16.50000000000000000, 0.000000000000000000, 4.000000000000000000 ) ) ;
#171 = EDGE_CURVE ( 'NONE', #154, #54, #107, .T. ) ;
#172 =( LENGTH_UNIT ( ) NAMED_UNIT ( * ) SI_UNIT ( .MILLI., .METRE. ) );
#173 = COORDINATED_UNIVERSAL_TIME_OFFSET ( 1, 0, .AHEAD. ) ;
#174 = APPROVAL_ROLE ( '' ) ;
#175 = APPROVAL_STATUS ( 'not_yet_approved' ) ;
ENDSEC;
END-ISO-10303-21;
