ISO-10303-21;
HEADER;
FILE_DESCRIPTION (( 'STEP AP203' ),
    '1' );
FILE_NAME ('A7_42-11-A.STEP',
    '2022-01-13T12:18:46',
    ( '' ),
    ( '' ),
    'SwSTEP 2.0',
    'SolidWorks 2019',
    '' );
FILE_SCHEMA (( 'CONFIG_CONTROL_DESIGN' ));
ENDSEC;

DATA;
#1 = ORIENTED_EDGE ( 'NONE', *, *, #98, .F. ) ;
#2 = APPLICATION_PROTOCOL_DEFINITION ( 'international standard', 'config_control_design', 1994, #186 ) ;
#3 = EDGE_LOOP ( 'NONE', ( #272, #64 ) ) ;
#4 = CARTESIAN_POINT ( 'NONE',  ( 1.047131808995260055E-29, 0.000000000000000000, -1.509075975935630917E-14 ) ) ;
#5 = EDGE_LOOP ( 'NONE', ( #229, #411 ) ) ;
#6 = DIRECTION ( 'NONE',  ( -0.000000000000000000, -0.000000000000000000, 1.000000000000000000 ) ) ;
#7 = ORIENTED_EDGE ( 'NONE', *, *, #221, .F. ) ;
#8 = COORDINATED_UNIVERSAL_TIME_OFFSET ( 1, 0, .AHEAD. ) ;
#9 = DIRECTION ( 'NONE',  ( -1.000000000000000000, 0.000000000000000000, 0.000000000000000000 ) ) ;
#10 = VERTEX_POINT ( 'NONE', #363 ) ;
#11 = ORIENTED_EDGE ( 'NONE', *, *, #273, .T. ) ;
#12 = APPROVAL ( #106, 'NEURÈENÝ' ) ;
#13 = PERSON_AND_ORGANIZATION_ROLE ( 'classification_officer' ) ;
#14 = CARTESIAN_POINT ( 'NONE',  ( 0.000000000000000000, 0.000000000000000000, 3.000000000000000000 ) ) ;
#15 = MANIFOLD_SOLID_BREP ( 'Odebrat vysunutím2', #227 ) ;
#16 = LOCAL_TIME ( 13, 18, 46.00000000000000000, #274 ) ;
#17 = MECHANICAL_CONTEXT ( 'NONE', #186, 'mechanical' ) ;
#18 = PLANE ( 'NONE',  #331 ) ;
#19 = CARTESIAN_POINT ( 'NONE',  ( 0.000000000000000000, 0.000000000000000000, 10.00000000000000000 ) ) ;
#20 = DIRECTION ( 'NONE',  ( 1.000000000000000000, 0.000000000000000000, 0.000000000000000000 ) ) ;
#21 = AXIS2_PLACEMENT_3D ( 'NONE', #30, #293, #388 ) ;
#22 = LINE ( 'NONE', #148, #232 ) ;
#23 = CARTESIAN_POINT ( 'NONE',  ( 20.00000000000000000, 2.449293598294706513E-15, 10.00000000000000000 ) ) ;
#24 = EDGE_CURVE ( 'NONE', #91, #97, #58, .T. ) ;
#25 = AXIS2_PLACEMENT_3D ( 'NONE', #250, #217, #154 ) ;
#26 = DIRECTION ( 'NONE',  ( 0.000000000000000000, 0.000000000000000000, 1.000000000000000000 ) ) ;
#27 = CARTESIAN_POINT ( 'NONE',  ( 20.00000000000000000, 2.449293598294706513E-15, 7.000000000000000000 ) ) ;
#28 = DIRECTION ( 'NONE',  ( -0.000000000000000000, -0.000000000000000000, -1.000000000000000000 ) ) ;
#29 = VERTEX_POINT ( 'NONE', #206 ) ;
#30 = CARTESIAN_POINT ( 'NONE',  ( 0.000000000000000000, 0.000000000000000000, 3.000000000000000000 ) ) ;
#31 = PERSON ( 'NEURÈENÝ', 'NEURÈENÝ', 'NEURÈENÝ', ('NEURÈENÝ'), ('NEURÈENÝ'), ('NEURÈENÝ') ) ;
#32 = VERTEX_POINT ( 'NONE', #174 ) ;
#33 = LOCAL_TIME ( 13, 18, 46.00000000000000000, #8 ) ;
#34 = DIRECTION ( 'NONE',  ( 6.938893903907228378E-16, -0.000000000000000000, -1.000000000000000000 ) ) ;
#35 = ORIENTED_EDGE ( 'NONE', *, *, #164, .F. ) ;
#36 = ADVANCED_FACE ( 'NONE', ( #401, #299 ), #18, .T. ) ;
#37 = DATE_AND_TIME ( #143, #67 ) ;
#38 = EDGE_LOOP ( 'NONE', ( #7, #167, #386, #210 ) ) ;
#39 = TOROIDAL_SURFACE ( 'NONE', #149, 5.499999999999998224, 17.00000000000000355 ) ;
#40 = CARTESIAN_POINT ( 'NONE',  ( 0.000000000000000000, 0.000000000000000000, 3.000000000000000000 ) ) ;
#41 = TOROIDAL_SURFACE ( 'NONE', #390, 5.499999999999998224, 17.00000000000000355 ) ;
#42 = PERSON_AND_ORGANIZATION_ROLE ( 'creator' ) ;
#43 = ORIENTED_EDGE ( 'NONE', *, *, #221, .T. ) ;
#44 = DIRECTION ( 'NONE',  ( 0.000000000000000000, 0.000000000000000000, 1.000000000000000000 ) ) ;
#45 = AXIS2_PLACEMENT_3D ( 'NONE', #118, #181, #307 ) ;
#46 = PERSON_AND_ORGANIZATION ( #31, #115 ) ;
#47 = DIRECTION ( 'NONE',  ( -1.000000000000000000, -1.224646799147352961E-16, 0.000000000000000000 ) ) ;
#48 = LINE ( 'NONE', #88, #80 ) ;
#49 = EDGE_CURVE ( 'NONE', #231, #225, #404, .T. ) ;
#50 = FACE_OUTER_BOUND ( 'NONE', #261, .T. ) ;
#51 = CARTESIAN_POINT ( 'NONE',  ( -6.938893903907217334E-15, 0.000000000000000000, 9.999999999999984013 ) ) ;
#52 = APPROVAL_PERSON_ORGANIZATION ( #269, #243, #205 ) ;
#53 = CARTESIAN_POINT ( 'NONE',  ( 21.74807680927191811, 2.663371265208564466E-15, 0.000000000000000000 ) ) ;
#54 = PRODUCT_DEFINITION ( 'NEZNÁMÝ', '', #130, #124 ) ;
#55 = DIRECTION ( 'NONE',  ( -0.000000000000000000, -0.000000000000000000, -1.000000000000000000 ) ) ;
#56 = CIRCLE ( 'NONE', #298, 17.00000000000000355 ) ;
#57 = FACE_OUTER_BOUND ( 'NONE', #192, .T. ) ;
#58 = CIRCLE ( 'NONE', #117, 21.35000000000000142 ) ;
#59 = ORIENTED_EDGE ( 'NONE', *, *, #89, .T. ) ;
#60 = EDGE_LOOP ( 'NONE', ( #141, #237, #202, #246 ) ) ;
#61 = DIRECTION ( 'NONE',  ( -1.000000000000000000, 0.000000000000000000, 0.000000000000000000 ) ) ;
#62 = CC_DESIGN_DATE_AND_TIME_ASSIGNMENT ( #37, #267, ( #199 ) ) ;
#63 = AXIS2_PLACEMENT_3D ( 'NONE', #116, #344, #87 ) ;
#64 = ORIENTED_EDGE ( 'NONE', *, *, #179, .F. ) ;
#65 = DIRECTION ( 'NONE',  ( -1.000000000000000000, 0.000000000000000000, -6.938893903907229364E-16 ) ) ;
#66 = EDGE_LOOP ( 'NONE', ( #389, #43 ) ) ;
#67 = LOCAL_TIME ( 13, 18, 46.00000000000000000, #304 ) ;
#68 = COORDINATED_UNIVERSAL_TIME_OFFSET ( 1, 0, .AHEAD. ) ;
#69 = ORIENTED_EDGE ( 'NONE', *, *, #409, .T. ) ;
#70 = CALENDAR_DATE ( 2022, 13, 1 ) ;
#71 = DIRECTION ( 'NONE',  ( -1.000000000000000000, 0.000000000000000000, 0.000000000000000000 ) ) ;
#72 = ADVANCED_FACE ( 'NONE', ( #332, #180 ), #139, .T. ) ;
#73 = VECTOR ( 'NONE', #6, 1000.000000000000000 ) ;
#74 = PERSON_AND_ORGANIZATION ( #31, #115 ) ;
#75 = ORIENTED_EDGE ( 'NONE', *, *, #125, .F. ) ;
#76 = CALENDAR_DATE ( 2022, 13, 1 ) ;
#77 = EDGE_LOOP ( 'NONE', ( #322, #204 ) ) ;
#78 = SECURITY_CLASSIFICATION_LEVEL ( 'unclassified' ) ;
#79 = VERTEX_POINT ( 'NONE', #171 ) ;
#80 = VECTOR ( 'NONE', #255, 1000.000000000000000 ) ;
#81 = CARTESIAN_POINT ( 'NONE',  ( 0.000000000000000000, 0.000000000000000000, 0.000000000000000000 ) ) ;
#82 = ADVANCED_FACE ( 'NONE', ( #300 ), #41, .T. ) ;
#83 = FACE_OUTER_BOUND ( 'NONE', #38, .T. ) ;
#84 = FACE_OUTER_BOUND ( 'NONE', #77, .T. ) ;
#85 = CC_DESIGN_PERSON_AND_ORGANIZATION_ASSIGNMENT ( #396, #104, ( #54 ) ) ;
#86 = DIRECTION ( 'NONE',  ( -0.000000000000000000, -0.000000000000000000, 1.000000000000000000 ) ) ;
#87 = DIRECTION ( 'NONE',  ( -1.000000000000000000, 0.000000000000000000, -6.938893903907229364E-16 ) ) ;
#88 = CARTESIAN_POINT ( 'NONE',  ( -21.35000000000000142, 0.000000000000000000, 3.000000000000000000 ) ) ;
#89 = EDGE_CURVE ( 'NONE', #160, #32, #280, .T. ) ;
#90 = DIRECTION ( 'NONE',  ( 1.000000000000000000, 0.000000000000000000, 0.000000000000000000 ) ) ;
#91 = VERTEX_POINT ( 'NONE', #395 ) ;
#92 = CIRCLE ( 'NONE', #172, 21.35000000000000142 ) ;
#93 = CIRCLE ( 'NONE', #152, 21.74807680927192521 ) ;
#94 = DIRECTION ( 'NONE',  ( -1.000000000000000000, 0.000000000000000000, 0.000000000000000000 ) ) ;
#95 = ORIENTED_EDGE ( 'NONE', *, *, #337, .T. ) ;
#96 = FACE_OUTER_BOUND ( 'NONE', #397, .T. ) ;
#97 = VERTEX_POINT ( 'NONE', #114 ) ;
#98 = EDGE_CURVE ( 'NONE', #225, #231, #215, .T. ) ;
#99 = DIRECTION ( 'NONE',  ( 6.938893903907228378E-16, -0.000000000000000000, -1.000000000000000000 ) ) ;
#100 = AXIS2_PLACEMENT_3D ( 'NONE', #373, #374, #20 ) ;
#101 = ORIENTED_EDGE ( 'NONE', *, *, #209, .T. ) ;
#102 = APPROVAL_ROLE ( '' ) ;
#103 = VERTEX_POINT ( 'NONE', #107 ) ;
#104 = PERSON_AND_ORGANIZATION_ROLE ( 'creator' ) ;
#105 = DIRECTION ( 'NONE',  ( 0.000000000000000000, 0.000000000000000000, -1.000000000000000000 ) ) ;
#106 = APPROVAL_STATUS ( 'not_yet_approved' ) ;
#107 = CARTESIAN_POINT ( 'NONE',  ( 21.74807680927191811, 2.663371265208564466E-15, 10.00000000000000000 ) ) ;
#108 = AXIS2_PLACEMENT_3D ( 'NONE', #4, #99, #223 ) ;
#109 = PERSON_AND_ORGANIZATION ( #31, #115 ) ;
#110 = DIRECTION ( 'NONE',  ( 1.000000000000000000, 0.000000000000000000, 0.000000000000000000 ) ) ;
#111 = APPROVAL_DATE_TIME ( #327, #340 ) ;
#112 = CARTESIAN_POINT ( 'NONE',  ( 5.499999999999994671, 6.735557395310440051E-16, 5.000000000000000000 ) ) ;
#113 = EDGE_CURVE ( 'NONE', #103, #197, #56, .T. ) ;
#114 = CARTESIAN_POINT ( 'NONE',  ( -21.35000000000000142, 2.614620916179599200E-15, 7.000000000000000000 ) ) ;
#115 = ORGANIZATION ( 'NEURÈENÝ', 'NEURÈENÝ', '' ) ;
#116 = CARTESIAN_POINT ( 'NONE',  ( 1.047131808995260055E-29, 0.000000000000000000, -1.509075975935630917E-14 ) ) ;
#117 = AXIS2_PLACEMENT_3D ( 'NONE', #393, #44, #110 ) ;
#118 = CARTESIAN_POINT ( 'NONE',  ( 0.000000000000000000, 0.000000000000000000, 3.000000000000000000 ) ) ;
#119 = CYLINDRICAL_SURFACE ( 'NONE', #262, 20.00000000000000000 ) ;
#120 = AXIS2_PLACEMENT_3D ( 'NONE', #253, #276, #410 ) ;
#121 = CARTESIAN_POINT ( 'NONE',  ( 0.000000000000000000, 0.000000000000000000, 10.00000000000000000 ) ) ;
#122 = CC_DESIGN_APPROVAL ( #12, ( #130 ) ) ;
#123 = CARTESIAN_POINT ( 'NONE',  ( 0.000000000000000000, 0.000000000000000000, 0.000000000000000000 ) ) ;
#124 = DESIGN_CONTEXT ( 'detailed design', #156, 'design' ) ;
#125 = EDGE_CURVE ( 'NONE', #200, #297, #278, .T. ) ;
#126 = ORIENTED_EDGE ( 'NONE', *, *, #125, .T. ) ;
#127 = DIRECTION ( 'NONE',  ( 0.000000000000000000, 0.000000000000000000, 1.000000000000000000 ) ) ;
#128 = UNCERTAINTY_MEASURE_WITH_UNIT (LENGTH_MEASURE( 1.000000000000000082E-05 ), #161, 'distance_accuracy_value', 'NONE');
#129 = DIRECTION ( 'NONE',  ( -1.000000000000000000, 0.000000000000000000, 0.000000000000000000 ) ) ;
#130 = PRODUCT_DEFINITION_FORMATION_WITH_SPECIFIED_SOURCE ( 'LIBOVOLNÝ', '', #153, .NOT_KNOWN. ) ;
#131 = EDGE_LOOP ( 'NONE', ( #1, #365 ) ) ;
#132 = ADVANCED_FACE ( 'NONE', ( #50 ), #371, .F. ) ;
#133 = CARTESIAN_POINT ( 'NONE',  ( 0.000000000000000000, 0.000000000000000000, 3.000000000000000000 ) ) ;
#134 = LINE ( 'NONE', #222, #403 ) ;
#135 = CIRCLE ( 'NONE', #120, 20.00000000000000000 ) ;
#136 = DIRECTION ( 'NONE',  ( -1.000000000000000000, 0.000000000000000000, -6.938893903907229364E-16 ) ) ;
#137 = AXIS2_PLACEMENT_3D ( 'NONE', #40, #105, #245 ) ;
#138 = PERSON_AND_ORGANIZATION_ROLE ( 'design_owner' ) ;
#139 = PLANE ( 'NONE',  #137 ) ;
#140 = DATE_AND_TIME ( #76, #16 ) ;
#141 = ORIENTED_EDGE ( 'NONE', *, *, #113, .F. ) ;
#142 = CC_DESIGN_PERSON_AND_ORGANIZATION_ASSIGNMENT ( #46, #13, ( #199 ) ) ;
#143 = CALENDAR_DATE ( 2022, 13, 1 ) ;
#144 = DIRECTION ( 'NONE',  ( -1.000000000000000000, 0.000000000000000000, 0.000000000000000000 ) ) ;
#145 = EDGE_CURVE ( 'NONE', #29, #103, #93, .T. ) ;
#146 = PERSON_AND_ORGANIZATION ( #31, #115 ) ;
#147 = DIRECTION ( 'NONE',  ( 1.000000000000000000, 0.000000000000000000, -0.000000000000000000 ) ) ;
#148 = CARTESIAN_POINT ( 'NONE',  ( 21.35000000000000142, 2.614620916179599200E-15, 3.000000000000000000 ) ) ;
#149 = AXIS2_PLACEMENT_3D ( 'NONE', #296, #314, #65 ) ;
#150 = CYLINDRICAL_SURFACE ( 'NONE', #157, 21.35000000000000142 ) ;
#151 = ADVANCED_FACE ( 'NONE', ( #183, #84 ), #185, .T. ) ;
#152 = AXIS2_PLACEMENT_3D ( 'NONE', #51, #310, #251 ) ;
#153 = PRODUCT ( 'A7_42-11-A', 'A7_42-11-A', '', ( #17 ) ) ;
#154 = DIRECTION ( 'NONE',  ( 1.000000000000000000, 0.000000000000000000, 0.000000000000000000 ) ) ;
#155 = CARTESIAN_POINT ( 'NONE',  ( 0.000000000000000000, 0.000000000000000000, 7.000000000000000000 ) ) ;
#156 = APPLICATION_CONTEXT ( 'configuration controlled 3d designs of mechanical parts and assemblies' ) ;
#157 = AXIS2_PLACEMENT_3D ( 'NONE', #155, #285, #220 ) ;
#158 = FACE_OUTER_BOUND ( 'NONE', #5, .T. ) ;
#159 = ADVANCED_FACE ( 'NONE', ( #376, #158 ), #313, .F. ) ;
#160 = VERTEX_POINT ( 'NONE', #402 ) ;
#161 =( LENGTH_UNIT ( ) NAMED_UNIT ( * ) SI_UNIT ( .MILLI., .METRE. ) );
#162 = ORIENTED_EDGE ( 'NONE', *, *, #49, .T. ) ;
#163 =( NAMED_UNIT ( * ) PLANE_ANGLE_UNIT ( ) SI_UNIT ( $, .RADIAN. ) );
#164 = EDGE_CURVE ( 'NONE', #297, #225, #48, .T. ) ;
#165 = VERTEX_POINT ( 'NONE', #405 ) ;
#166 = CARTESIAN_POINT ( 'NONE',  ( 0.000000000000000000, 0.000000000000000000, 10.00000000000000000 ) ) ;
#167 = ORIENTED_EDGE ( 'NONE', *, *, #392, .T. ) ;
#168 = FACE_OUTER_BOUND ( 'NONE', #334, .T. ) ;
#169 = ORIENTED_EDGE ( 'NONE', *, *, #316, .F. ) ;
#170 = EDGE_CURVE ( 'NONE', #381, #10, #178, .T. ) ;
#171 = CARTESIAN_POINT ( 'NONE',  ( -21.74807680927191811, 0.000000000000000000, -3.018151951871261834E-14 ) ) ;
#172 = AXIS2_PLACEMENT_3D ( 'NONE', #368, #127, #90 ) ;
#173 = EDGE_CURVE ( 'NONE', #32, #160, #387, .T. ) ;
#174 = CARTESIAN_POINT ( 'NONE',  ( 20.00000000000000000, 2.449293598294706513E-15, 3.000000000000000000 ) ) ;
#175 = CARTESIAN_POINT ( 'NONE',  ( 0.000000000000000000, 0.000000000000000000, 7.000000000000000000 ) ) ;
#176 = DATE_TIME_ROLE ( 'creation_date' ) ;
#177 = DIRECTION ( 'NONE',  ( 0.000000000000000000, 0.000000000000000000, 1.000000000000000000 ) ) ;
#178 = CIRCLE ( 'NONE', #213, 21.35000000000000142 ) ;
#179 = EDGE_CURVE ( 'NONE', #328, #165, #407, .T. ) ;
#180 = FACE_OUTER_BOUND ( 'NONE', #349, .T. ) ;
#181 = DIRECTION ( 'NONE',  ( 0.000000000000000000, 0.000000000000000000, -1.000000000000000000 ) ) ;
#182 = CC_DESIGN_PERSON_AND_ORGANIZATION_ASSIGNMENT ( #109, #238, ( #130 ) ) ;
#183 = FACE_BOUND ( 'NONE', #370, .T. ) ;
#184 =( GEOMETRIC_REPRESENTATION_CONTEXT ( 3 ) GLOBAL_UNCERTAINTY_ASSIGNED_CONTEXT ( ( #128 ) ) GLOBAL_UNIT_ASSIGNED_CONTEXT ( ( #161, #163, #287 ) ) REPRESENTATION_CONTEXT ( 'NONE', 'WORKASPACE' ) );
#185 = PLANE ( 'NONE',  #384 ) ;
#186 = APPLICATION_CONTEXT ( 'configuration controlled 3d designs of mechanical parts and assemblies' ) ;
#187 = DIRECTION ( 'NONE',  ( -1.000000000000000000, 0.000000000000000000, 0.000000000000000000 ) ) ;
#188 = DIRECTION ( 'NONE',  ( -0.000000000000000000, -0.000000000000000000, -1.000000000000000000 ) ) ;
#189 = EDGE_CURVE ( 'NONE', #197, #79, #284, .T. ) ;
#190 = VECTOR ( 'NONE', #55, 1000.000000000000000 ) ;
#191 = LINE ( 'NONE', #233, #73 ) ;
#192 = EDGE_LOOP ( 'NONE', ( #75, #101, #162, #35 ) ) ;
#193 = DIRECTION ( 'NONE',  ( -0.000000000000000000, -0.000000000000000000, -1.000000000000000000 ) ) ;
#194 = ORIENTED_EDGE ( 'NONE', *, *, #179, .T. ) ;
#195 = CIRCLE ( 'NONE', #25, 21.35000000000000142 ) ;
#196 = LINE ( 'NONE', #321, #290 ) ;
#197 = VERTEX_POINT ( 'NONE', #53 ) ;
#198 = CYLINDRICAL_SURFACE ( 'NONE', #353, 21.35000000000000142 ) ;
#199 = SECURITY_CLASSIFICATION ( '', '', #78 ) ;
#200 = VERTEX_POINT ( 'NONE', #248 ) ;
#201 = CC_DESIGN_PERSON_AND_ORGANIZATION_ASSIGNMENT ( #74, #138, ( #153 ) ) ;
#202 = ORIENTED_EDGE ( 'NONE', *, *, #311, .T. ) ;
#203 = CARTESIAN_POINT ( 'NONE',  ( 0.000000000000000000, 0.000000000000000000, 0.000000000000000000 ) ) ;
#204 = ORIENTED_EDGE ( 'NONE', *, *, #367, .F. ) ;
#205 = APPROVAL_ROLE ( '' ) ;
#206 = CARTESIAN_POINT ( 'NONE',  ( -21.74807680927193232, 0.000000000000000000, 9.999999999999969802 ) ) ;
#207 = AXIS2_PLACEMENT_3D ( 'NONE', #14, #400, #9 ) ;
#208 = APPROVAL_DATE_TIME ( #399, #243 ) ;
#209 = EDGE_CURVE ( 'NONE', #200, #231, #22, .T. ) ;
#210 = ORIENTED_EDGE ( 'NONE', *, *, #360, .F. ) ;
#211 = PERSON_AND_ORGANIZATION ( #31, #115 ) ;
#212 = DIRECTION ( 'NONE',  ( 0.000000000000000000, 0.000000000000000000, -1.000000000000000000 ) ) ;
#213 = AXIS2_PLACEMENT_3D ( 'NONE', #121, #338, #308 ) ;
#214 = DIRECTION ( 'NONE',  ( 0.000000000000000000, 0.000000000000000000, -1.000000000000000000 ) ) ;
#215 = CIRCLE ( 'NONE', #226, 21.35000000000000142 ) ;
#216 = DIRECTION ( 'NONE',  ( 0.000000000000000000, 0.000000000000000000, 1.000000000000000000 ) ) ;
#217 = DIRECTION ( 'NONE',  ( 0.000000000000000000, 0.000000000000000000, 1.000000000000000000 ) ) ;
#218 = ADVANCED_FACE ( 'NONE', ( #83 ), #150, .F. ) ;
#219 = CARTESIAN_POINT ( 'NONE',  ( 0.000000000000000000, 0.000000000000000000, 10.00000000000000000 ) ) ;
#220 = DIRECTION ( 'NONE',  ( 1.000000000000000000, 0.000000000000000000, 0.000000000000000000 ) ) ;
#221 = EDGE_CURVE ( 'NONE', #97, #91, #195, .T. ) ;
#222 = CARTESIAN_POINT ( 'NONE',  ( -20.00000000000000000, 0.000000000000000000, 10.00000000000000000 ) ) ;
#223 = DIRECTION ( 'NONE',  ( -1.000000000000000000, 0.000000000000000000, -6.938893903907229364E-16 ) ) ;
#224 = CIRCLE ( 'NONE', #309, 21.35000000000000142 ) ;
#225 = VERTEX_POINT ( 'NONE', #406 ) ;
#226 = AXIS2_PLACEMENT_3D ( 'NONE', #81, #239, #144 ) ;
#227 = CLOSED_SHELL ( 'NONE', ( #372, #218, #345, #236, #295, #151, #159, #82, #132, #36, #282, #72 ) ) ;
#228 = CARTESIAN_POINT ( 'NONE',  ( 0.000000000000000000, 0.000000000000000000, 3.000000000000000000 ) ) ;
#229 = ORIENTED_EDGE ( 'NONE', *, *, #377, .T. ) ;
#230 = DIRECTION ( 'NONE',  ( 0.000000000000000000, 0.000000000000000000, -1.000000000000000000 ) ) ;
#231 = VERTEX_POINT ( 'NONE', #375 ) ;
#232 = VECTOR ( 'NONE', #188, 1000.000000000000000 ) ;
#233 = CARTESIAN_POINT ( 'NONE',  ( -21.35000000000000142, 2.614620916179599200E-15, 7.000000000000000000 ) ) ;
#234 = ORIENTED_EDGE ( 'NONE', *, *, #113, .T. ) ;
#235 = CALENDAR_DATE ( 2022, 13, 1 ) ;
#236 = ADVANCED_FACE ( 'NONE', ( #281 ), #119, .F. ) ;
#237 = ORIENTED_EDGE ( 'NONE', *, *, #367, .T. ) ;
#238 = PERSON_AND_ORGANIZATION_ROLE ( 'design_supplier' ) ;
#239 = DIRECTION ( 'NONE',  ( 0.000000000000000000, 0.000000000000000000, -1.000000000000000000 ) ) ;
#240 = APPROVAL_STATUS ( 'not_yet_approved' ) ;
#241 = ORIENTED_EDGE ( 'NONE', *, *, #360, .T. ) ;
#242 = AXIS2_PLACEMENT_3D ( 'NONE', #203, #335, #301 ) ;
#243 = APPROVAL ( #366, 'NEURÈENÝ' ) ;
#244 = SHAPE_DEFINITION_REPRESENTATION ( #286, #354 ) ;
#245 = DIRECTION ( 'NONE',  ( -1.000000000000000000, 0.000000000000000000, -0.000000000000000000 ) ) ;
#246 = ORIENTED_EDGE ( 'NONE', *, *, #189, .F. ) ;
#247 = CARTESIAN_POINT ( 'NONE',  ( 0.000000000000000000, 0.000000000000000000, 3.000000000000000000 ) ) ;
#248 = CARTESIAN_POINT ( 'NONE',  ( 21.35000000000000142, 2.614620916179599200E-15, 3.000000000000000000 ) ) ;
#249 = EDGE_CURVE ( 'NONE', #328, #32, #312, .T. ) ;
#250 = CARTESIAN_POINT ( 'NONE',  ( 0.000000000000000000, 0.000000000000000000, 7.000000000000000000 ) ) ;
#251 = DIRECTION ( 'NONE',  ( -1.000000000000000000, 0.000000000000000000, -7.178800875457241785E-16 ) ) ;
#252 = CIRCLE ( 'NONE', #379, 17.00000000000000355 ) ;
#253 = CARTESIAN_POINT ( 'NONE',  ( 0.000000000000000000, 0.000000000000000000, 7.000000000000000000 ) ) ;
#254 = APPROVAL_PERSON_ORGANIZATION ( #146, #12, #102 ) ;
#255 = DIRECTION ( 'NONE',  ( -0.000000000000000000, -0.000000000000000000, -1.000000000000000000 ) ) ;
#256 = ORIENTED_EDGE ( 'NONE', *, *, #311, .F. ) ;
#257 = DIRECTION ( 'NONE',  ( -0.000000000000000000, -1.000000000000000000, 0.000000000000000000 ) ) ;
#258 = CIRCLE ( 'NONE', #108, 21.74807680927191811 ) ;
#259 = ORIENTED_EDGE ( 'NONE', *, *, #409, .F. ) ;
#260 = CARTESIAN_POINT ( 'NONE',  ( -21.35000000000000142, 0.000000000000000000, 3.000000000000000000 ) ) ;
#261 = EDGE_LOOP ( 'NONE', ( #264, #294, #241, #320 ) ) ;
#262 = AXIS2_PLACEMENT_3D ( 'NONE', #219, #342, #187 ) ;
#263 = CYLINDRICAL_SURFACE ( 'NONE', #21, 21.35000000000000142 ) ;
#264 = ORIENTED_EDGE ( 'NONE', *, *, #392, .F. ) ;
#265 = COORDINATED_UNIVERSAL_TIME_OFFSET ( 1, 0, .AHEAD. ) ;
#266 = ORIENTED_EDGE ( 'NONE', *, *, #173, .T. ) ;
#267 = DATE_TIME_ROLE ( 'classification_date' ) ;
#268 = DIRECTION ( 'NONE',  ( 6.938893903907228378E-16, -0.000000000000000000, -1.000000000000000000 ) ) ;
#269 = PERSON_AND_ORGANIZATION ( #31, #115 ) ;
#270 = ORIENTED_EDGE ( 'NONE', *, *, #377, .F. ) ;
#271 = APPROVAL_ROLE ( '' ) ;
#272 = ORIENTED_EDGE ( 'NONE', *, *, #273, .F. ) ;
#273 = EDGE_CURVE ( 'NONE', #165, #328, #135, .T. ) ;
#274 = COORDINATED_UNIVERSAL_TIME_OFFSET ( 1, 0, .AHEAD. ) ;
#275 = CARTESIAN_POINT ( 'NONE',  ( -3.469446951953614189E-15, 0.000000000000000000, 4.999999999999996447 ) ) ;
#276 = DIRECTION ( 'NONE',  ( 0.000000000000000000, 0.000000000000000000, 1.000000000000000000 ) ) ;
#277 = CIRCLE ( 'NONE', #329, 21.74807680927192521 ) ;
#278 = CIRCLE ( 'NONE', #348, 21.35000000000000142 ) ;
#279 = DIRECTION ( 'NONE',  ( 1.000000000000000000, 0.000000000000000000, -0.000000000000000000 ) ) ;
#280 = CIRCLE ( 'NONE', #207, 20.00000000000000000 ) ;
#281 = FACE_OUTER_BOUND ( 'NONE', #289, .T. ) ;
#282 = ADVANCED_FACE ( 'NONE', ( #168 ), #198, .F. ) ;
#283 = DIRECTION ( 'NONE',  ( -1.000000000000000000, 0.000000000000000000, 0.000000000000000000 ) ) ;
#284 = CIRCLE ( 'NONE', #63, 21.74807680927191811 ) ;
#285 = DIRECTION ( 'NONE',  ( -0.000000000000000000, -0.000000000000000000, 1.000000000000000000 ) ) ;
#286 = PRODUCT_DEFINITION_SHAPE ( 'NONE', 'NONE',  #54 ) ;
#287 =( NAMED_UNIT ( * ) SI_UNIT ( $, .STERADIAN. ) SOLID_ANGLE_UNIT ( ) );
#288 = ORIENTED_EDGE ( 'NONE', *, *, #89, .F. ) ;
#289 = EDGE_LOOP ( 'NONE', ( #11, #305, #266, #259 ) ) ;
#290 = VECTOR ( 'NONE', #351, 1000.000000000000000 ) ;
#291 = ORIENTED_EDGE ( 'NONE', *, *, #170, .F. ) ;
#292 = CC_DESIGN_DATE_AND_TIME_ASSIGNMENT ( #140, #176, ( #54 ) ) ;
#293 = DIRECTION ( 'NONE',  ( -0.000000000000000000, -0.000000000000000000, -1.000000000000000000 ) ) ;
#294 = ORIENTED_EDGE ( 'NONE', *, *, #24, .F. ) ;
#295 = ADVANCED_FACE ( 'NONE', ( #96 ), #382, .F. ) ;
#296 = CARTESIAN_POINT ( 'NONE',  ( -3.469446951953614189E-15, 0.000000000000000000, 4.999999999999996447 ) ) ;
#297 = VERTEX_POINT ( 'NONE', #260 ) ;
#298 = AXIS2_PLACEMENT_3D ( 'NONE', #112, #336, #47 ) ;
#299 = FACE_OUTER_BOUND ( 'NONE', #66, .T. ) ;
#300 = FACE_OUTER_BOUND ( 'NONE', #60, .T. ) ;
#301 = DIRECTION ( 'NONE',  ( 1.000000000000000000, 0.000000000000000000, 0.000000000000000000 ) ) ;
#302 = AXIS2_PLACEMENT_3D ( 'NONE', #123, #26, #339 ) ;
#303 = CARTESIAN_POINT ( 'NONE',  ( 0.000000000000000000, 0.000000000000000000, 0.000000000000000000 ) ) ;
#304 = COORDINATED_UNIVERSAL_TIME_OFFSET ( 1, 0, .AHEAD. ) ;
#305 = ORIENTED_EDGE ( 'NONE', *, *, #249, .T. ) ;
#306 = LOCAL_TIME ( 13, 18, 46.00000000000000000, #68 ) ;
#307 = DIRECTION ( 'NONE',  ( -1.000000000000000000, 0.000000000000000000, 0.000000000000000000 ) ) ;
#308 = DIRECTION ( 'NONE',  ( 1.000000000000000000, 0.000000000000000000, 0.000000000000000000 ) ) ;
#309 = AXIS2_PLACEMENT_3D ( 'NONE', #228, #230, #129 ) ;
#310 = DIRECTION ( 'NONE',  ( 6.938893903907228378E-16, -0.000000000000000000, -1.000000000000000000 ) ) ;
#311 = EDGE_CURVE ( 'NONE', #29, #79, #252, .T. ) ;
#312 = LINE ( 'NONE', #23, #190 ) ;
#313 = PLANE ( 'NONE',  #302 ) ;
#314 = DIRECTION ( 'NONE',  ( 6.938893903907228378E-16, -0.000000000000000000, -1.000000000000000000 ) ) ;
#315 = AXIS2_PLACEMENT_3D ( 'NONE', #303, #212, #71 ) ;
#316 = EDGE_CURVE ( 'NONE', #10, #381, #92, .T. ) ;
#317 = DIRECTION ( 'NONE',  ( 0.000000000000000000, 0.000000000000000000, -1.000000000000000000 ) ) ;
#318 = ORIENTED_EDGE ( 'NONE', *, *, #145, .T. ) ;
#319 = CARTESIAN_POINT ( 'NONE',  ( -6.938893903907217334E-15, 0.000000000000000000, 9.999999999999984013 ) ) ;
#320 = ORIENTED_EDGE ( 'NONE', *, *, #170, .T. ) ;
#321 = CARTESIAN_POINT ( 'NONE',  ( 21.35000000000000142, 0.000000000000000000, 7.000000000000000000 ) ) ;
#322 = ORIENTED_EDGE ( 'NONE', *, *, #145, .F. ) ;
#323 = CC_DESIGN_APPROVAL ( #243, ( #54 ) ) ;
#324 = DIRECTION ( 'NONE',  ( -1.000000000000000000, 0.000000000000000000, -7.178800875457241785E-16 ) ) ;
#325 = ORIENTED_EDGE ( 'NONE', *, *, #164, .T. ) ;
#326 = ORIENTED_EDGE ( 'NONE', *, *, #209, .F. ) ;
#327 = DATE_AND_TIME ( #70, #306 ) ;
#328 = VERTEX_POINT ( 'NONE', #27 ) ;
#329 = AXIS2_PLACEMENT_3D ( 'NONE', #319, #34, #324 ) ;
#330 = AXIS2_PLACEMENT_3D ( 'NONE', #341, #86, #408 ) ;
#331 = AXIS2_PLACEMENT_3D ( 'NONE', #175, #177, #147 ) ;
#332 = FACE_BOUND ( 'NONE', #383, .T. ) ;
#333 = APPLICATION_PROTOCOL_DEFINITION ( 'international standard', 'config_control_design', 1994, #156 ) ;
#334 = EDGE_LOOP ( 'NONE', ( #326, #352, #325, #378 ) ) ;
#335 = DIRECTION ( 'NONE',  ( 0.000000000000000000, 0.000000000000000000, 1.000000000000000000 ) ) ;
#336 = DIRECTION ( 'NONE',  ( -1.224646799147353207E-16, 1.000000000000000000, -8.497694209043069165E-32 ) ) ;
#337 = EDGE_CURVE ( 'NONE', #297, #200, #224, .T. ) ;
#338 = DIRECTION ( 'NONE',  ( 0.000000000000000000, 0.000000000000000000, 1.000000000000000000 ) ) ;
#339 = DIRECTION ( 'NONE',  ( 1.000000000000000000, 0.000000000000000000, -0.000000000000000000 ) ) ;
#340 = APPROVAL ( #240, 'NEURÈENÝ' ) ;
#341 = CARTESIAN_POINT ( 'NONE',  ( 0.000000000000000000, 0.000000000000000000, 7.000000000000000000 ) ) ;
#342 = DIRECTION ( 'NONE',  ( -0.000000000000000000, -0.000000000000000000, -1.000000000000000000 ) ) ;
#343 = CC_DESIGN_SECURITY_CLASSIFICATION ( #199, ( #130 ) ) ;
#344 = DIRECTION ( 'NONE',  ( 6.938893903907228378E-16, -0.000000000000000000, -1.000000000000000000 ) ) ;
#345 = ADVANCED_FACE ( 'NONE', ( #347 ), #39, .T. ) ;
#346 = LOCAL_TIME ( 13, 18, 46.00000000000000000, #265 ) ;
#347 = FACE_OUTER_BOUND ( 'NONE', #362, .T. ) ;
#348 = AXIS2_PLACEMENT_3D ( 'NONE', #247, #214, #283 ) ;
#349 = EDGE_LOOP ( 'NONE', ( #95, #126 ) ) ;
#350 = CC_DESIGN_PERSON_AND_ORGANIZATION_ASSIGNMENT ( #211, #42, ( #130 ) ) ;
#351 = DIRECTION ( 'NONE',  ( -0.000000000000000000, -0.000000000000000000, 1.000000000000000000 ) ) ;
#352 = ORIENTED_EDGE ( 'NONE', *, *, #337, .F. ) ;
#353 = AXIS2_PLACEMENT_3D ( 'NONE', #133, #380, #94 ) ;
#354 = ADVANCED_BREP_SHAPE_REPRESENTATION ( 'A7_42-11-A', ( #15, #242 ), #184 ) ;
#355 = CARTESIAN_POINT ( 'NONE',  ( -5.500000000000001776, 0.000000000000000000, 4.999999999999992895 ) ) ;
#356 = ORIENTED_EDGE ( 'NONE', *, *, #173, .F. ) ;
#357 = APPROVAL_PERSON_ORGANIZATION ( #361, #340, #271 ) ;
#358 = APPROVAL_DATE_TIME ( #391, #12 ) ;
#359 = ORIENTED_EDGE ( 'NONE', *, *, #249, .F. ) ;
#360 = EDGE_CURVE ( 'NONE', #91, #381, #196, .T. ) ;
#361 = PERSON_AND_ORGANIZATION ( #31, #115 ) ;
#362 = EDGE_LOOP ( 'NONE', ( #318, #234, #270, #256 ) ) ;
#363 = CARTESIAN_POINT ( 'NONE',  ( -21.35000000000000142, 2.614620916179599200E-15, 10.00000000000000000 ) ) ;
#364 = CC_DESIGN_APPROVAL ( #340, ( #199 ) ) ;
#365 = ORIENTED_EDGE ( 'NONE', *, *, #49, .F. ) ;
#366 = APPROVAL_STATUS ( 'not_yet_approved' ) ;
#367 = EDGE_CURVE ( 'NONE', #103, #29, #277, .T. ) ;
#368 = CARTESIAN_POINT ( 'NONE',  ( 0.000000000000000000, 0.000000000000000000, 10.00000000000000000 ) ) ;
#369 = AXIS2_PLACEMENT_3D ( 'NONE', #166, #28, #61 ) ;
#370 = EDGE_LOOP ( 'NONE', ( #291, #169 ) ) ;
#371 = CYLINDRICAL_SURFACE ( 'NONE', #330, 21.35000000000000142 ) ;
#372 = ADVANCED_FACE ( 'NONE', ( #57 ), #263, .F. ) ;
#373 = CARTESIAN_POINT ( 'NONE',  ( 0.000000000000000000, 0.000000000000000000, 7.000000000000000000 ) ) ;
#374 = DIRECTION ( 'NONE',  ( 0.000000000000000000, 0.000000000000000000, 1.000000000000000000 ) ) ;
#375 = CARTESIAN_POINT ( 'NONE',  ( 21.35000000000000142, 2.614620916179599200E-15, 0.000000000000000000 ) ) ;
#376 = FACE_BOUND ( 'NONE', #131, .T. ) ;
#377 = EDGE_CURVE ( 'NONE', #79, #197, #258, .T. ) ;
#378 = ORIENTED_EDGE ( 'NONE', *, *, #98, .T. ) ;
#379 = AXIS2_PLACEMENT_3D ( 'NONE', #355, #257, #317 ) ;
#380 = DIRECTION ( 'NONE',  ( -0.000000000000000000, -0.000000000000000000, -1.000000000000000000 ) ) ;
#381 = VERTEX_POINT ( 'NONE', #385 ) ;
#382 = CYLINDRICAL_SURFACE ( 'NONE', #369, 20.00000000000000000 ) ;
#383 = EDGE_LOOP ( 'NONE', ( #288, #356 ) ) ;
#384 = AXIS2_PLACEMENT_3D ( 'NONE', #19, #216, #279 ) ;
#385 = CARTESIAN_POINT ( 'NONE',  ( 21.35000000000000142, 0.000000000000000000, 10.00000000000000000 ) ) ;
#386 = ORIENTED_EDGE ( 'NONE', *, *, #316, .T. ) ;
#387 = CIRCLE ( 'NONE', #45, 20.00000000000000000 ) ;
#388 = DIRECTION ( 'NONE',  ( -1.000000000000000000, 0.000000000000000000, 0.000000000000000000 ) ) ;
#389 = ORIENTED_EDGE ( 'NONE', *, *, #24, .T. ) ;
#390 = AXIS2_PLACEMENT_3D ( 'NONE', #275, #268, #136 ) ;
#391 = DATE_AND_TIME ( #235, #33 ) ;
#392 = EDGE_CURVE ( 'NONE', #97, #10, #191, .T. ) ;
#393 = CARTESIAN_POINT ( 'NONE',  ( 0.000000000000000000, 0.000000000000000000, 7.000000000000000000 ) ) ;
#394 = CALENDAR_DATE ( 2022, 13, 1 ) ;
#395 = CARTESIAN_POINT ( 'NONE',  ( 21.35000000000000142, 0.000000000000000000, 7.000000000000000000 ) ) ;
#396 = PERSON_AND_ORGANIZATION ( #31, #115 ) ;
#397 = EDGE_LOOP ( 'NONE', ( #359, #194, #69, #59 ) ) ;
#398 = PRODUCT_RELATED_PRODUCT_CATEGORY ( 'detail', '', ( #153 ) ) ;
#399 = DATE_AND_TIME ( #394, #346 ) ;
#400 = DIRECTION ( 'NONE',  ( 0.000000000000000000, 0.000000000000000000, -1.000000000000000000 ) ) ;
#401 = FACE_BOUND ( 'NONE', #3, .T. ) ;
#402 = CARTESIAN_POINT ( 'NONE',  ( -20.00000000000000000, 0.000000000000000000, 3.000000000000000000 ) ) ;
#403 = VECTOR ( 'NONE', #193, 1000.000000000000000 ) ;
#404 = CIRCLE ( 'NONE', #315, 21.35000000000000142 ) ;
#405 = CARTESIAN_POINT ( 'NONE',  ( -20.00000000000000000, 0.000000000000000000, 7.000000000000000000 ) ) ;
#406 = CARTESIAN_POINT ( 'NONE',  ( -21.35000000000000142, 0.000000000000000000, 0.000000000000000000 ) ) ;
#407 = CIRCLE ( 'NONE', #100, 20.00000000000000000 ) ;
#408 = DIRECTION ( 'NONE',  ( 1.000000000000000000, 0.000000000000000000, 0.000000000000000000 ) ) ;
#409 = EDGE_CURVE ( 'NONE', #165, #160, #134, .T. ) ;
#410 = DIRECTION ( 'NONE',  ( 1.000000000000000000, 0.000000000000000000, 0.000000000000000000 ) ) ;
#411 = ORIENTED_EDGE ( 'NONE', *, *, #189, .T. ) ;
ENDSEC;
END-ISO-10303-21;
