ISO-10303-21;
HEADER;
FILE_DESCRIPTION (( 'STEP AP203' ),
    '1' );
FILE_NAME ('WA_D42-G2.STEP',
    '2019-01-07T10:21:10',
    ( '' ),
    ( '' ),
    'SwSTEP 2.0',
    'SolidWorks 2018',
    '' );
FILE_SCHEMA (( 'CONFIG_CONTROL_DESIGN' ));
ENDSEC;

DATA;
#1 = CC_DESIGN_APPROVAL ( #138, ( #231 ) ) ;
#2 = EDGE_CURVE ( 'NONE', #232, #106, #257, .T. ) ;
#3 = DATE_AND_TIME ( #90, #209 ) ;
#4 = CC_DESIGN_APPROVAL ( #182, ( #147 ) ) ;
#5 = SPHERICAL_SURFACE ( 'NONE', #211, 21.19999999999999929 ) ;
#6 = CARTESIAN_POINT ( 'NONE',  ( 0.0000000000000000000, 0.0000000000000000000, -7.499999999999992895 ) ) ;
#7 = CARTESIAN_POINT ( 'NONE',  ( 0.0000000000000000000, 0.0000000000000000000, 0.0000000000000000000 ) ) ;
#8 = PERSON_AND_ORGANIZATION ( #109, #213 ) ;
#9 = DIRECTION ( 'NONE',  ( -0.0000000000000000000, -1.000000000000000000, -0.0000000000000000000 ) ) ;
#10 = DIRECTION ( 'NONE',  ( -0.0000000000000000000, -1.000000000000000000, -0.0000000000000000000 ) ) ;
#11 = AXIS2_PLACEMENT_3D ( 'NONE', #69, #9, #199 ) ;
#12 = DIRECTION ( 'NONE',  ( 0.0000000000000000000, 0.0000000000000000000, -1.000000000000000000 ) ) ;
#13 = CALENDAR_DATE ( 2019, 7, 1 ) ;
#14 = DIRECTION ( 'NONE',  ( 0.0000000000000000000, 0.0000000000000000000, -1.000000000000000000 ) ) ;
#15 = DIRECTION ( 'NONE',  ( 8.659560562355001884E-17, -0.7071067811865420216, 0.7071067811865531239 ) ) ;
#16 = ORIENTED_EDGE ( 'NONE', *, *, #239, .F. ) ;
#17 =( LENGTH_UNIT ( ) NAMED_UNIT ( * ) SI_UNIT ( .MILLI., .METRE. ) );
#18 = CC_DESIGN_PERSON_AND_ORGANIZATION_ASSIGNMENT ( #233, #54, ( #147 ) ) ;
#19 = CARTESIAN_POINT ( 'NONE',  ( 9.184850993605140056E-16, 0.4999999999999787392, 7.499999999999992895 ) ) ;
#20 = CLOSED_SHELL ( 'NONE', ( #154, #134, #198, #237, #66, #258, #107, #234 ) ) ;
#21 = FACE_OUTER_BOUND ( 'NONE', #37, .T. ) ;
#22 = CALENDAR_DATE ( 2019, 7, 1 ) ;
#23 = ORIENTED_EDGE ( 'NONE', *, *, #153, .T. ) ;
#24 = AXIS2_PLACEMENT_3D ( 'NONE', #202, #32, #252 ) ;
#25 = ORIENTED_EDGE ( 'NONE', *, *, #169, .T. ) ;
#26 = FACE_OUTER_BOUND ( 'NONE', #83, .T. ) ;
#27 = DIRECTION ( 'NONE',  ( 0.0000000000000000000, 0.0000000000000000000, -1.000000000000000000 ) ) ;
#28 = CARTESIAN_POINT ( 'NONE',  ( 0.0000000000000000000, 0.0000000000000000000, 0.0000000000000000000 ) ) ;
#29 = AXIS2_PLACEMENT_3D ( 'NONE', #64, #89, #242 ) ;
#30 = ORIENTED_EDGE ( 'NONE', *, *, #272, .F. ) ;
#31 = DIRECTION ( 'NONE',  ( 0.0000000000000000000, 0.0000000000000000000, 1.000000000000000000 ) ) ;
#32 = DIRECTION ( 'NONE',  ( 0.0000000000000000000, 1.000000000000000000, 0.0000000000000000000 ) ) ;
#33 = APPROVAL_ROLE ( '' ) ;
#34 = CARTESIAN_POINT ( 'NONE',  ( 0.0000000000000000000, 0.0000000000000000000, 0.0000000000000000000 ) ) ;
#35 = VECTOR ( 'NONE', #92, 999.9999999999998863 ) ;
#36 = AXIS2_PLACEMENT_3D ( 'NONE', #55, #14, #206 ) ;
#37 = EDGE_LOOP ( 'NONE', ( #85, #61, #75, #163 ) ) ;
#38 = CIRCLE ( 'NONE', #101, 7.999999999999979572 ) ;
#39 = VERTEX_POINT ( 'NONE', #261 ) ;
#40 = CIRCLE ( 'NONE', #105, 7.499999999999997335 ) ;
#41 = COORDINATED_UNIVERSAL_TIME_OFFSET ( 1, 0, .AHEAD. ) ;
#42 = CARTESIAN_POINT ( 'NONE',  ( 0.0000000000000000000, 0.0000000000000000000, 0.0000000000000000000 ) ) ;
#43 = CARTESIAN_POINT ( 'NONE',  ( 0.0000000000000000000, 13.00000000000000178, 0.0000000000000000000 ) ) ;
#44 = EDGE_CURVE ( 'NONE', #256, #232, #124, .T. ) ;
#45 = DIRECTION ( 'NONE',  ( -0.0000000000000000000, -1.000000000000000000, -0.0000000000000000000 ) ) ;
#46 = CARTESIAN_POINT ( 'NONE',  ( 0.0000000000000000000, 0.4999999999999787392, 0.0000000000000000000 ) ) ;
#47 = LOCAL_TIME ( 11, 21, 10.00000000000000000, #102 ) ;
#48 =( GEOMETRIC_REPRESENTATION_CONTEXT ( 3 ) GLOBAL_UNCERTAINTY_ASSIGNED_CONTEXT ( ( #58 ) ) GLOBAL_UNIT_ASSIGNED_CONTEXT ( ( #17, #184, #146 ) ) REPRESENTATION_CONTEXT ( 'NONE', 'WORKASPACE' ) );
#49 = ORIENTED_EDGE ( 'NONE', *, *, #272, .T. ) ;
#50 = ORIENTED_EDGE ( 'NONE', *, *, #169, .F. ) ;
#51 = APPLICATION_CONTEXT ( 'configuration controlled 3d designs of mechanical parts and assemblies' ) ;
#52 = DATE_TIME_ROLE ( 'creation_date' ) ;
#53 = APPROVAL_PERSON_ORGANIZATION ( #8, #182, #167 ) ;
#54 = PERSON_AND_ORGANIZATION_ROLE ( 'design_supplier' ) ;
#55 = CARTESIAN_POINT ( 'NONE',  ( 0.0000000000000000000, 0.0000000000000000000, 0.0000000000000000000 ) ) ;
#56 = SHAPE_DEFINITION_REPRESENTATION ( #103, #243 ) ;
#57 = AXIS2_PLACEMENT_3D ( 'NONE', #88, #10, #27 ) ;
#58 = UNCERTAINTY_MEASURE_WITH_UNIT (LENGTH_MEASURE( 1.000000000000000082E-05 ), #17, 'distance_accuracy_value', 'NONE');
#59 = FACE_OUTER_BOUND ( 'NONE', #137, .T. ) ;
#60 = LOCAL_TIME ( 11, 21, 10.00000000000000000, #226 ) ;
#61 = ORIENTED_EDGE ( 'NONE', *, *, #193, .F. ) ;
#62 = CYLINDRICAL_SURFACE ( 'NONE', #84, 7.499999999999992895 ) ;
#63 = ORIENTED_EDGE ( 'NONE', *, *, #239, .T. ) ;
#64 = CARTESIAN_POINT ( 'NONE',  ( 0.0000000000000000000, 0.4999999999999787392, 0.0000000000000000000 ) ) ;
#65 = LINE ( 'NONE', #244, #35 ) ;
#66 = ADVANCED_FACE ( 'NONE', ( #131, #260 ), #263, .T. ) ;
#67 = CIRCLE ( 'NONE', #36, 21.19999999999999929 ) ;
#68 = PRODUCT ( 'WA_D42-G2', 'WA_D42-G2', '', ( #73 ) ) ;
#69 = CARTESIAN_POINT ( 'NONE',  ( 0.0000000000000000000, 0.0000000000000000000, 0.0000000000000000000 ) ) ;
#70 = AXIS2_PLACEMENT_3D ( 'NONE', #265, #197, #132 ) ;
#71 = CIRCLE ( 'NONE', #112, 7.999999999999979572 ) ;
#72 = DIRECTION ( 'NONE',  ( 0.0000000000000000000, 0.0000000000000000000, 1.000000000000000000 ) ) ;
#73 = MECHANICAL_CONTEXT ( 'NONE', #51, 'mechanical' ) ;
#74 = EDGE_CURVE ( 'NONE', #194, #269, #236, .T. ) ;
#75 = ORIENTED_EDGE ( 'NONE', *, *, #95, .T. ) ;
#76 = ORIENTED_EDGE ( 'NONE', *, *, #254, .F. ) ;
#77 = PERSON_AND_ORGANIZATION_ROLE ( 'classification_officer' ) ;
#78 = EDGE_CURVE ( 'NONE', #269, #194, #192, .T. ) ;
#79 = DATE_TIME_ROLE ( 'classification_date' ) ;
#80 = PERSON_AND_ORGANIZATION ( #109, #213 ) ;
#81 = ORIENTED_EDGE ( 'NONE', *, *, #2, .F. ) ;
#82 = ORIENTED_EDGE ( 'NONE', *, *, #264, .T. ) ;
#83 = EDGE_LOOP ( 'NONE', ( #251, #259, #178, #141 ) ) ;
#84 = AXIS2_PLACEMENT_3D ( 'NONE', #28, #195, #246 ) ;
#85 = ORIENTED_EDGE ( 'NONE', *, *, #44, .F. ) ;
#86 = FACE_OUTER_BOUND ( 'NONE', #230, .T. ) ;
#87 = EDGE_CURVE ( 'NONE', #106, #221, #65, .T. ) ;
#88 = CARTESIAN_POINT ( 'NONE',  ( 0.0000000000000000000, 0.0000000000000000000, 0.0000000000000000000 ) ) ;
#89 = DIRECTION ( 'NONE',  ( 0.0000000000000000000, -1.000000000000000000, 0.0000000000000000000 ) ) ;
#90 = CALENDAR_DATE ( 2019, 7, 1 ) ;
#91 = AXIS2_PLACEMENT_3D ( 'NONE', #247, #157, #159 ) ;
#92 = DIRECTION ( 'NONE',  ( 0.0000000000000000000, -0.7071067811865420216, -0.7071067811865531239 ) ) ;
#93 = DIRECTION ( 'NONE',  ( 0.0000000000000000000, 0.0000000000000000000, -1.000000000000000000 ) ) ;
#94 = CARTESIAN_POINT ( 'NONE',  ( 0.0000000000000000000, 13.00000000000000178, 0.0000000000000000000 ) ) ;
#95 = EDGE_CURVE ( 'NONE', #187, #106, #128, .T. ) ;
#96 = DIRECTION ( 'NONE',  ( -0.0000000000000000000, -1.000000000000000000, -0.0000000000000000000 ) ) ;
#97 = FACE_OUTER_BOUND ( 'NONE', #142, .T. ) ;
#98 = DIRECTION ( 'NONE',  ( 1.000000000000000000, 0.0000000000000000000, 0.0000000000000000000 ) ) ;
#99 = CARTESIAN_POINT ( 'NONE',  ( 21.19999999999999929, 0.0000000000000000000, 0.0000000000000000000 ) ) ;
#100 = APPROVAL_ROLE ( '' ) ;
#101 = AXIS2_PLACEMENT_3D ( 'NONE', #214, #241, #179 ) ;
#102 = COORDINATED_UNIVERSAL_TIME_OFFSET ( 1, 0, .AHEAD. ) ;
#103 = PRODUCT_DEFINITION_SHAPE ( 'NONE', 'NONE',  #277 ) ;
#104 = FACE_OUTER_BOUND ( 'NONE', #177, .T. ) ;
#105 = AXIS2_PLACEMENT_3D ( 'NONE', #43, #133, #93 ) ;
#106 = VERTEX_POINT ( 'NONE', #266 ) ;
#107 = ADVANCED_FACE ( 'NONE', ( #21 ), #62, .F. ) ;
#108 = CIRCLE ( 'NONE', #149, 7.499999999999992895 ) ;
#109 = PERSON ( 'NEURÈENÝ', 'NEURÈENÝ', 'NEURÈENÝ', ('NEURÈENÝ'), ('NEURÈENÝ'), ('NEURÈENÝ') ) ;
#110 = APPROVAL_DATE_TIME ( #3, #138 ) ;
#111 = CARTESIAN_POINT ( 'NONE',  ( 0.0000000000000000000, 0.4999999999999787392, 0.0000000000000000000 ) ) ;
#112 = AXIS2_PLACEMENT_3D ( 'NONE', #7, #217, #160 ) ;
#113 = CARTESIAN_POINT ( 'NONE',  ( 0.0000000000000000000, 0.0000000000000000000, 0.0000000000000000000 ) ) ;
#114 = ORIENTED_EDGE ( 'NONE', *, *, #78, .T. ) ;
#115 = CYLINDRICAL_SURFACE ( 'NONE', #11, 7.499999999999992895 ) ;
#116 = PLANE ( 'NONE',  #24 ) ;
#117 = LOCAL_TIME ( 11, 21, 10.00000000000000000, #176 ) ;
#118 = CC_DESIGN_PERSON_AND_ORGANIZATION_ASSIGNMENT ( #189, #77, ( #231 ) ) ;
#119 = CARTESIAN_POINT ( 'NONE',  ( 9.184850993605145972E-16, 13.00000000000000178, 7.499999999999998224 ) ) ;
#120 = VECTOR ( 'NONE', #45, 1000.000000000000000 ) ;
#121 = DIRECTION ( 'NONE',  ( 1.000000000000000000, 0.0000000000000000000, 0.0000000000000000000 ) ) ;
#122 = FACE_OUTER_BOUND ( 'NONE', #123, .T. ) ;
#123 = EDGE_LOOP ( 'NONE', ( #30, #212, #248 ) ) ;
#124 = LINE ( 'NONE', #240, #120 ) ;
#125 = AXIS2_PLACEMENT_3D ( 'NONE', #220, #72, #162 ) ;
#126 = DATE_AND_TIME ( #171, #60 ) ;
#127 = AXIS2_PLACEMENT_3D ( 'NONE', #42, #180, #135 ) ;
#128 = LINE ( 'NONE', #6, #208 ) ;
#129 = ORIENTED_EDGE ( 'NONE', *, *, #87, .T. ) ;
#130 = CC_DESIGN_PERSON_AND_ORGANIZATION_ASSIGNMENT ( #205, #186, ( #147 ) ) ;
#131 = FACE_BOUND ( 'NONE', #235, .T. ) ;
#132 = DIRECTION ( 'NONE',  ( 0.0000000000000000000, 0.0000000000000000000, -1.000000000000000000 ) ) ;
#133 = DIRECTION ( 'NONE',  ( -0.0000000000000000000, -1.000000000000000000, -0.0000000000000000000 ) ) ;
#134 = ADVANCED_FACE ( 'NONE', ( #26 ), #115, .F. ) ;
#135 = DIRECTION ( 'NONE',  ( 1.000000000000000000, 0.0000000000000000000, -1.224646799147353207E-16 ) ) ;
#136 = DIRECTION ( 'NONE',  ( 0.0000000000000000000, 0.0000000000000000000, -1.000000000000000000 ) ) ;
#137 = EDGE_LOOP ( 'NONE', ( #16, #76, #129, #185 ) ) ;
#138 = APPROVAL ( #225, 'NEURÈENÝ' ) ;
#139 = AXIS2_PLACEMENT_3D ( 'NONE', #111, #201, #136 ) ;
#140 = APPROVAL_STATUS ( 'not_yet_approved' ) ;
#141 = ORIENTED_EDGE ( 'NONE', *, *, #95, .F. ) ;
#142 = EDGE_LOOP ( 'NONE', ( #191, #82 ) ) ;
#143 = APPROVAL_STATUS ( 'not_yet_approved' ) ;
#144 = APPROVAL_PERSON_ORGANIZATION ( #170, #138, #100 ) ;
#145 = MANIFOLD_SOLID_BREP ( 'Zkosení1', #20 ) ;
#146 =( NAMED_UNIT ( * ) SI_UNIT ( $, .STERADIAN. ) SOLID_ANGLE_UNIT ( ) );
#147 = PRODUCT_DEFINITION_FORMATION_WITH_SPECIFIED_SOURCE ( 'LIBOVOLNÝ', '', #68, .NOT_KNOWN. ) ;
#148 = VERTEX_POINT ( 'NONE', #215 ) ;
#149 = AXIS2_PLACEMENT_3D ( 'NONE', #203, #188, #268 ) ;
#150 = CONICAL_SURFACE ( 'NONE', #155, 7.499999999999992895, 0.7853981633974560506 ) ;
#151 = CC_DESIGN_APPROVAL ( #164, ( #277 ) ) ;
#152 = PERSON_AND_ORGANIZATION ( #109, #213 ) ;
#153 = EDGE_CURVE ( 'NONE', #148, #221, #38, .T. ) ;
#154 = ADVANCED_FACE ( 'NONE', ( #104 ), #175, .F. ) ;
#155 = AXIS2_PLACEMENT_3D ( 'NONE', #46, #271, #12 ) ;
#156 = VECTOR ( 'NONE', #15, 999.9999999999998863 ) ;
#157 = DIRECTION ( 'NONE',  ( 0.0000000000000000000, -1.000000000000000000, -0.0000000000000000000 ) ) ;
#158 = CC_DESIGN_DATE_AND_TIME_ASSIGNMENT ( #126, #79, ( #231 ) ) ;
#159 = DIRECTION ( 'NONE',  ( 0.0000000000000000000, 0.0000000000000000000, -1.000000000000000000 ) ) ;
#160 = DIRECTION ( 'NONE',  ( 0.0000000000000000000, 0.0000000000000000000, -1.000000000000000000 ) ) ;
#161 = DIRECTION ( 'NONE',  ( -0.0000000000000000000, -1.000000000000000000, -0.0000000000000000000 ) ) ;
#162 = DIRECTION ( 'NONE',  ( 1.000000000000000000, 0.0000000000000000000, 0.0000000000000000000 ) ) ;
#163 = ORIENTED_EDGE ( 'NONE', *, *, #254, .T. ) ;
#164 = APPROVAL ( #140, 'NEURÈENÝ' ) ;
#165 = DIRECTION ( 'NONE',  ( 0.0000000000000000000, 0.0000000000000000000, 1.000000000000000000 ) ) ;
#166 = APPROVAL_DATE_TIME ( #196, #164 ) ;
#167 = APPROVAL_ROLE ( '' ) ;
#168 = APPLICATION_CONTEXT ( 'configuration controlled 3d designs of mechanical parts and assemblies' ) ;
#169 = EDGE_CURVE ( 'NONE', #221, #148, #71, .T. ) ;
#170 = PERSON_AND_ORGANIZATION ( #109, #213 ) ;
#171 = CALENDAR_DATE ( 2019, 7, 1 ) ;
#172 = CC_DESIGN_DATE_AND_TIME_ASSIGNMENT ( #245, #52, ( #277 ) ) ;
#173 = COORDINATED_UNIVERSAL_TIME_OFFSET ( 1, 0, .AHEAD. ) ;
#174 = ORIENTED_EDGE ( 'NONE', *, *, #87, .F. ) ;
#175 = CONICAL_SURFACE ( 'NONE', #139, 7.499999999999992895, 0.7853981633974560506 ) ;
#176 = COORDINATED_UNIVERSAL_TIME_OFFSET ( 1, 0, .AHEAD. ) ;
#177 = EDGE_LOOP ( 'NONE', ( #81, #63, #50, #174 ) ) ;
#178 = ORIENTED_EDGE ( 'NONE', *, *, #2, .T. ) ;
#179 = DIRECTION ( 'NONE',  ( 0.0000000000000000000, 0.0000000000000000000, -1.000000000000000000 ) ) ;
#180 = DIRECTION ( 'NONE',  ( 1.224646799147353207E-16, -0.0000000000000000000, 1.000000000000000000 ) ) ;
#181 = EDGE_CURVE ( 'NONE', #39, #194, #228, .T. ) ;
#182 = APPROVAL ( #143, 'NEURÈENÝ' ) ;
#183 = SPHERICAL_SURFACE ( 'NONE', #227, 21.19999999999999929 ) ;
#184 =( NAMED_UNIT ( * ) PLANE_ANGLE_UNIT ( ) SI_UNIT ( $, .RADIAN. ) );
#185 = ORIENTED_EDGE ( 'NONE', *, *, #153, .F. ) ;
#186 = PERSON_AND_ORGANIZATION_ROLE ( 'creator' ) ;
#187 = VERTEX_POINT ( 'NONE', #218 ) ;
#188 = DIRECTION ( 'NONE',  ( 0.0000000000000000000, -1.000000000000000000, 0.0000000000000000000 ) ) ;
#189 = PERSON_AND_ORGANIZATION ( #109, #213 ) ;
#190 = ORIENTED_EDGE ( 'NONE', *, *, #74, .F. ) ;
#191 = ORIENTED_EDGE ( 'NONE', *, *, #193, .T. ) ;
#192 = CIRCLE ( 'NONE', #70, 21.19999999999999929 ) ;
#193 = EDGE_CURVE ( 'NONE', #187, #256, #40, .T. ) ;
#194 = VERTEX_POINT ( 'NONE', #262 ) ;
#195 = DIRECTION ( 'NONE',  ( -0.0000000000000000000, -1.000000000000000000, -0.0000000000000000000 ) ) ;
#196 = DATE_AND_TIME ( #13, #47 ) ;
#197 = DIRECTION ( 'NONE',  ( -0.0000000000000000000, -1.000000000000000000, -0.0000000000000000000 ) ) ;
#198 = ADVANCED_FACE ( 'NONE', ( #122 ), #5, .T. ) ;
#199 = DIRECTION ( 'NONE',  ( 0.0000000000000000000, 0.0000000000000000000, -1.000000000000000000 ) ) ;
#200 = CC_DESIGN_PERSON_AND_ORGANIZATION_ASSIGNMENT ( #223, #275, ( #277 ) ) ;
#201 = DIRECTION ( 'NONE',  ( 0.0000000000000000000, -1.000000000000000000, 0.0000000000000000000 ) ) ;
#202 = CARTESIAN_POINT ( 'NONE',  ( -3.184081677783118980E-15, 13.00000000000000178, 0.0000000000000000000 ) ) ;
#203 = CARTESIAN_POINT ( 'NONE',  ( 0.0000000000000000000, 0.4999999999999787392, 0.0000000000000000000 ) ) ;
#204 = SECURITY_CLASSIFICATION_LEVEL ( 'unclassified' ) ;
#205 = PERSON_AND_ORGANIZATION ( #109, #213 ) ;
#206 = DIRECTION ( 'NONE',  ( -1.000000000000000000, 0.0000000000000000000, 0.0000000000000000000 ) ) ;
#207 = PRODUCT_RELATED_PRODUCT_CATEGORY ( 'detail', '', ( #68 ) ) ;
#208 = VECTOR ( 'NONE', #161, 1000.000000000000000 ) ;
#209 = LOCAL_TIME ( 11, 21, 10.00000000000000000, #173 ) ;
#210 = CIRCLE ( 'NONE', #278, 7.499999999999997335 ) ;
#211 = AXIS2_PLACEMENT_3D ( 'NONE', #113, #31, #98 ) ;
#212 = ORIENTED_EDGE ( 'NONE', *, *, #181, .T. ) ;
#213 = ORGANIZATION ( 'NEURÈENÝ', 'NEURÈENÝ', '' ) ;
#214 = CARTESIAN_POINT ( 'NONE',  ( 0.0000000000000000000, 0.0000000000000000000, 0.0000000000000000000 ) ) ;
#215 = CARTESIAN_POINT ( 'NONE',  ( 9.797174393178800019E-16, 0.0000000000000000000, 7.999999999999979572 ) ) ;
#216 = APPROVAL_DATE_TIME ( #238, #182 ) ;
#217 = DIRECTION ( 'NONE',  ( 0.0000000000000000000, 1.000000000000000000, 0.0000000000000000000 ) ) ;
#218 = CARTESIAN_POINT ( 'NONE',  ( 0.0000000000000000000, 13.00000000000000178, -7.499999999999997335 ) ) ;
#219 = DESIGN_CONTEXT ( 'detailed design', #168, 'design' ) ;
#220 = CARTESIAN_POINT ( 'NONE',  ( 0.0000000000000000000, 0.0000000000000000000, 0.0000000000000000000 ) ) ;
#221 = VERTEX_POINT ( 'NONE', #249 ) ;
#222 = PERSON_AND_ORGANIZATION_ROLE ( 'design_owner' ) ;
#223 = PERSON_AND_ORGANIZATION ( #109, #213 ) ;
#224 = CARTESIAN_POINT ( 'NONE',  ( 9.184850993605140056E-16, 0.4999999999999787392, 7.499999999999992895 ) ) ;
#225 = APPROVAL_STATUS ( 'not_yet_approved' ) ;
#226 = COORDINATED_UNIVERSAL_TIME_OFFSET ( 1, 0, .AHEAD. ) ;
#227 = AXIS2_PLACEMENT_3D ( 'NONE', #34, #165, #121 ) ;
#228 = CIRCLE ( 'NONE', #127, 21.19999999999999929 ) ;
#229 = LOCAL_TIME ( 11, 21, 10.00000000000000000, #41 ) ;
#230 = EDGE_LOOP ( 'NONE', ( #279, #49, #190 ) ) ;
#231 = SECURITY_CLASSIFICATION ( '', '', #204 ) ;
#232 = VERTEX_POINT ( 'NONE', #19 ) ;
#233 = PERSON_AND_ORGANIZATION ( #109, #213 ) ;
#234 = ADVANCED_FACE ( 'NONE', ( #59 ), #150, .F. ) ;
#235 = EDGE_LOOP ( 'NONE', ( #25, #23 ) ) ;
#236 = CIRCLE ( 'NONE', #57, 21.19999999999999929 ) ;
#237 = ADVANCED_FACE ( 'NONE', ( #86 ), #183, .T. ) ;
#238 = DATE_AND_TIME ( #274, #117 ) ;
#239 = EDGE_CURVE ( 'NONE', #232, #148, #270, .T. ) ;
#240 = CARTESIAN_POINT ( 'NONE',  ( 9.184850993605140056E-16, 0.0000000000000000000, 7.499999999999992895 ) ) ;
#241 = DIRECTION ( 'NONE',  ( 0.0000000000000000000, 1.000000000000000000, 0.0000000000000000000 ) ) ;
#242 = DIRECTION ( 'NONE',  ( 0.0000000000000000000, 0.0000000000000000000, -1.000000000000000000 ) ) ;
#243 = ADVANCED_BREP_SHAPE_REPRESENTATION ( 'WA_D42-G2', ( #145, #125 ), #48 ) ;
#244 = CARTESIAN_POINT ( 'NONE',  ( 0.0000000000000000000, 0.4999999999999787392, -7.499999999999992895 ) ) ;
#245 = DATE_AND_TIME ( #22, #229 ) ;
#246 = DIRECTION ( 'NONE',  ( 0.0000000000000000000, 0.0000000000000000000, -1.000000000000000000 ) ) ;
#247 = CARTESIAN_POINT ( 'NONE',  ( 0.0000000000000000000, 0.0000000000000000000, 0.0000000000000000000 ) ) ;
#248 = ORIENTED_EDGE ( 'NONE', *, *, #78, .F. ) ;
#249 = CARTESIAN_POINT ( 'NONE',  ( 0.0000000000000000000, 0.0000000000000000000, -7.999999999999979572 ) ) ;
#250 = APPLICATION_PROTOCOL_DEFINITION ( 'international standard', 'config_control_design', 1994, #168 ) ;
#251 = ORIENTED_EDGE ( 'NONE', *, *, #264, .F. ) ;
#252 = DIRECTION ( 'NONE',  ( 0.0000000000000000000, -0.0000000000000000000, 1.000000000000000000 ) ) ;
#253 = CC_DESIGN_SECURITY_CLASSIFICATION ( #231, ( #147 ) ) ;
#254 = EDGE_CURVE ( 'NONE', #106, #232, #108, .T. ) ;
#255 = ORIENTED_EDGE ( 'NONE', *, *, #74, .T. ) ;
#256 = VERTEX_POINT ( 'NONE', #119 ) ;
#257 = CIRCLE ( 'NONE', #29, 7.499999999999992895 ) ;
#258 = ADVANCED_FACE ( 'NONE', ( #97 ), #116, .F. ) ;
#259 = ORIENTED_EDGE ( 'NONE', *, *, #44, .T. ) ;
#260 = FACE_OUTER_BOUND ( 'NONE', #280, .T. ) ;
#261 = CARTESIAN_POINT ( 'NONE',  ( 1.298125607096194385E-15, 21.19999999999999929, 0.0000000000000000000 ) ) ;
#262 = CARTESIAN_POINT ( 'NONE',  ( -21.19999999999999929, 0.0000000000000000000, 2.596251214192388770E-15 ) ) ;
#263 = PLANE ( 'NONE',  #91 ) ;
#264 = EDGE_CURVE ( 'NONE', #256, #187, #210, .T. ) ;
#265 = CARTESIAN_POINT ( 'NONE',  ( 0.0000000000000000000, 0.0000000000000000000, 0.0000000000000000000 ) ) ;
#266 = CARTESIAN_POINT ( 'NONE',  ( 0.0000000000000000000, 0.4999999999999787392, -7.499999999999992895 ) ) ;
#267 = CC_DESIGN_PERSON_AND_ORGANIZATION_ASSIGNMENT ( #152, #222, ( #68 ) ) ;
#268 = DIRECTION ( 'NONE',  ( 0.0000000000000000000, 0.0000000000000000000, -1.000000000000000000 ) ) ;
#269 = VERTEX_POINT ( 'NONE', #99 ) ;
#270 = LINE ( 'NONE', #224, #156 ) ;
#271 = DIRECTION ( 'NONE',  ( 0.0000000000000000000, -1.000000000000000000, 0.0000000000000000000 ) ) ;
#272 = EDGE_CURVE ( 'NONE', #39, #269, #67, .T. ) ;
#273 = APPLICATION_PROTOCOL_DEFINITION ( 'international standard', 'config_control_design', 1994, #51 ) ;
#274 = CALENDAR_DATE ( 2019, 7, 1 ) ;
#275 = PERSON_AND_ORGANIZATION_ROLE ( 'creator' ) ;
#276 = DIRECTION ( 'NONE',  ( 0.0000000000000000000, 0.0000000000000000000, -1.000000000000000000 ) ) ;
#277 = PRODUCT_DEFINITION ( 'NEZNÁMÝ', '', #147, #219 ) ;
#278 = AXIS2_PLACEMENT_3D ( 'NONE', #94, #96, #276 ) ;
#279 = ORIENTED_EDGE ( 'NONE', *, *, #181, .F. ) ;
#280 = EDGE_LOOP ( 'NONE', ( #114, #255 ) ) ;
#281 = APPROVAL_PERSON_ORGANIZATION ( #80, #164, #33 ) ;
ENDSEC;
END-ISO-10303-21;
