ISO-10303-21;
HEADER;
FILE_DESCRIPTION (( 'STEP AP203' ),
    '1' );
FILE_NAME ('WA_D50-G2.STEP',
    '2019-01-07T09:11:05',
    ( '' ),
    ( '' ),
    'SwSTEP 2.0',
    'SolidWorks 2018',
    '' );
FILE_SCHEMA (( 'CONFIG_CONTROL_DESIGN' ));
ENDSEC;

DATA;
#1 = DIRECTION ( 'NONE',  ( 0.0000000000000000000, 0.0000000000000000000, 1.000000000000000000 ) ) ;
#2 = LOCAL_TIME ( 10, 11, 5.000000000000000000, #48 ) ;
#3 = APPLICATION_CONTEXT ( 'configuration controlled 3d designs of mechanical parts and assemblies' ) ;
#4 = DIRECTION ( 'NONE',  ( 0.0000000000000000000, 0.0000000000000000000, -1.000000000000000000 ) ) ;
#5 = APPLICATION_PROTOCOL_DEFINITION ( 'international standard', 'config_control_design', 1994, #3 ) ;
#6 = MANIFOLD_SOLID_BREP ( 'Zkosení1', #84 ) ;
#7 = CIRCLE ( 'NONE', #164, 25.00000000000000000 ) ;
#8 = CARTESIAN_POINT ( 'NONE',  ( 0.0000000000000000000, 13.00000000000000178, 0.0000000000000000000 ) ) ;
#9 = DATE_TIME_ROLE ( 'creation_date' ) ;
#10 = APPROVAL_PERSON_ORGANIZATION ( #212, #120, #271 ) ;
#11 = DIRECTION ( 'NONE',  ( -1.000000000000000000, 0.0000000000000000000, 0.0000000000000000000 ) ) ;
#12 = APPROVAL_DATE_TIME ( #75, #74 ) ;
#13 = UNCERTAINTY_MEASURE_WITH_UNIT (LENGTH_MEASURE( 1.000000000000000082E-05 ), #188, 'distance_accuracy_value', 'NONE');
#14 = DIRECTION ( 'NONE',  ( 0.0000000000000000000, -1.000000000000000000, 0.0000000000000000000 ) ) ;
#15 = DIRECTION ( 'NONE',  ( 0.0000000000000000000, 0.0000000000000000000, -1.000000000000000000 ) ) ;
#16 = EDGE_LOOP ( 'NONE', ( #46, #87, #60, #192 ) ) ;
#17 = DIRECTION ( 'NONE',  ( 1.000000000000000000, 0.0000000000000000000, 0.0000000000000000000 ) ) ;
#18 = PRODUCT_DEFINITION ( 'NEZNÁMÝ', '', #131, #62 ) ;
#19 = PERSON_AND_ORGANIZATION ( #238, #61 ) ;
#20 = CARTESIAN_POINT ( 'NONE',  ( 0.0000000000000000000, 13.00000000000000178, 0.0000000000000000000 ) ) ;
#21 = VERTEX_POINT ( 'NONE', #194 ) ;
#22 = DATE_AND_TIME ( #79, #2 ) ;
#23 = ADVANCED_FACE ( 'NONE', ( #171 ), #255, .T. ) ;
#24 = PRODUCT_DEFINITION_SHAPE ( 'NONE', 'NONE',  #18 ) ;
#25 = CIRCLE ( 'NONE', #119, 7.499999999999992895 ) ;
#26 = DATE_AND_TIME ( #156, #173 ) ;
#27 = CARTESIAN_POINT ( 'NONE',  ( 0.0000000000000000000, 0.0000000000000000000, 0.0000000000000000000 ) ) ;
#28 = CARTESIAN_POINT ( 'NONE',  ( 0.0000000000000000000, 0.0000000000000000000, 0.0000000000000000000 ) ) ;
#29 = ORIENTED_EDGE ( 'NONE', *, *, #64, .T. ) ;
#30 = DIRECTION ( 'NONE',  ( 0.0000000000000000000, 1.000000000000000000, 0.0000000000000000000 ) ) ;
#31 = DIRECTION ( 'NONE',  ( 8.659560562354940254E-17, -0.7071067811865469066, 0.7071067811865481278 ) ) ;
#32 = CARTESIAN_POINT ( 'NONE',  ( 0.0000000000000000000, 0.4999999999999926170, 0.0000000000000000000 ) ) ;
#33 = CIRCLE ( 'NONE', #104, 7.499999999999997335 ) ;
#34 = EDGE_LOOP ( 'NONE', ( #106, #214, #90, #246 ) ) ;
#35 = APPROVAL_DATE_TIME ( #149, #264 ) ;
#36 = CONICAL_SURFACE ( 'NONE', #172, 7.499999999999992895, 0.7853981633974491672 ) ;
#37 = VERTEX_POINT ( 'NONE', #123 ) ;
#38 = ORIENTED_EDGE ( 'NONE', *, *, #77, .T. ) ;
#39 = EDGE_CURVE ( 'NONE', #261, #73, #83, .T. ) ;
#40 = ADVANCED_FACE ( 'NONE', ( #109 ), #36, .F. ) ;
#41 = COORDINATED_UNIVERSAL_TIME_OFFSET ( 1, 0, .AHEAD. ) ;
#42 = AXIS2_PLACEMENT_3D ( 'NONE', #236, #85, #259 ) ;
#43 = CIRCLE ( 'NONE', #150, 7.999999999999986677 ) ;
#44 = CARTESIAN_POINT ( 'NONE',  ( 0.0000000000000000000, 0.4999999999999926170, -7.499999999999992895 ) ) ;
#45 = AXIS2_PLACEMENT_3D ( 'NONE', #243, #110, #92 ) ;
#46 = ORIENTED_EDGE ( 'NONE', *, *, #86, .F. ) ;
#47 = CARTESIAN_POINT ( 'NONE',  ( 0.0000000000000000000, 0.0000000000000000000, 0.0000000000000000000 ) ) ;
#48 = COORDINATED_UNIVERSAL_TIME_OFFSET ( 1, 0, .AHEAD. ) ;
#49 = DIRECTION ( 'NONE',  ( 0.0000000000000000000, -1.000000000000000000, 0.0000000000000000000 ) ) ;
#50 = DIRECTION ( 'NONE',  ( -0.0000000000000000000, -1.000000000000000000, -0.0000000000000000000 ) ) ;
#51 = APPROVAL_STATUS ( 'not_yet_approved' ) ;
#52 =( NAMED_UNIT ( * ) SI_UNIT ( $, .STERADIAN. ) SOLID_ANGLE_UNIT ( ) );
#53 = CARTESIAN_POINT ( 'NONE',  ( 0.0000000000000000000, 0.0000000000000000000, 0.0000000000000000000 ) ) ;
#54 = COORDINATED_UNIVERSAL_TIME_OFFSET ( 1, 0, .AHEAD. ) ;
#55 = DIRECTION ( 'NONE',  ( 0.0000000000000000000, 0.0000000000000000000, -1.000000000000000000 ) ) ;
#56 = ORIENTED_EDGE ( 'NONE', *, *, #39, .T. ) ;
#57 = EDGE_CURVE ( 'NONE', #21, #37, #186, .T. ) ;
#58 = COORDINATED_UNIVERSAL_TIME_OFFSET ( 1, 0, .AHEAD. ) ;
#59 = EDGE_CURVE ( 'NONE', #257, #66, #25, .T. ) ;
#60 = ORIENTED_EDGE ( 'NONE', *, *, #181, .T. ) ;
#61 = ORGANIZATION ( 'NEURÈENÝ', 'NEURÈENÝ', '' ) ;
#62 = DESIGN_CONTEXT ( 'detailed design', #3, 'design' ) ;
#63 = LINE ( 'NONE', #94, #89 ) ;
#64 = EDGE_CURVE ( 'NONE', #37, #66, #222, .T. ) ;
#65 = ADVANCED_BREP_SHAPE_REPRESENTATION ( 'WA_D50-G2', ( #6, #117 ), #207 ) ;
#66 = VERTEX_POINT ( 'NONE', #184 ) ;
#67 = DIRECTION ( 'NONE',  ( 0.0000000000000000000, 0.0000000000000000000, -1.000000000000000000 ) ) ;
#68 = CARTESIAN_POINT ( 'NONE',  ( -25.00000000000000000, 0.0000000000000000000, 3.061616997868383043E-15 ) ) ;
#69 = CARTESIAN_POINT ( 'NONE',  ( 0.0000000000000000000, 0.0000000000000000000, 0.0000000000000000000 ) ) ;
#70 = DIRECTION ( 'NONE',  ( 0.0000000000000000000, -1.000000000000000000, 0.0000000000000000000 ) ) ;
#71 = PERSON_AND_ORGANIZATION_ROLE ( 'classification_officer' ) ;
#72 = CARTESIAN_POINT ( 'NONE',  ( -3.184081677783118980E-15, 13.00000000000000178, 0.0000000000000000000 ) ) ;
#73 = VERTEX_POINT ( 'NONE', #68 ) ;
#74 = APPROVAL ( #183, 'NEURÈENÝ' ) ;
#75 = DATE_AND_TIME ( #256, #168 ) ;
#76 = DIRECTION ( 'NONE',  ( 0.0000000000000000000, 0.0000000000000000000, 1.000000000000000000 ) ) ;
#77 = EDGE_CURVE ( 'NONE', #73, #261, #121, .T. ) ;
#78 = ORIENTED_EDGE ( 'NONE', *, *, #273, .T. ) ;
#79 = CALENDAR_DATE ( 2019, 7, 1 ) ;
#80 = EDGE_CURVE ( 'NONE', #21, #257, #63, .T. ) ;
#81 = DIRECTION ( 'NONE',  ( 1.000000000000000000, 0.0000000000000000000, 0.0000000000000000000 ) ) ;
#82 = ORIENTED_EDGE ( 'NONE', *, *, #98, .T. ) ;
#83 = CIRCLE ( 'NONE', #42, 25.00000000000000000 ) ;
#84 = CLOSED_SHELL ( 'NONE', ( #40, #248, #23, #111, #240, #88, #157, #151 ) ) ;
#85 = DIRECTION ( 'NONE',  ( -0.0000000000000000000, -1.000000000000000000, -0.0000000000000000000 ) ) ;
#86 = EDGE_CURVE ( 'NONE', #257, #118, #235, .T. ) ;
#87 = ORIENTED_EDGE ( 'NONE', *, *, #239, .F. ) ;
#88 = ADVANCED_FACE ( 'NONE', ( #178 ), #206, .F. ) ;
#89 = VECTOR ( 'NONE', #140, 1000.000000000000000 ) ;
#90 = ORIENTED_EDGE ( 'NONE', *, *, #273, .F. ) ;
#91 = COORDINATED_UNIVERSAL_TIME_OFFSET ( 1, 0, .AHEAD. ) ;
#92 = DIRECTION ( 'NONE',  ( 0.0000000000000000000, 0.0000000000000000000, -1.000000000000000000 ) ) ;
#93 = DIRECTION ( 'NONE',  ( 0.0000000000000000000, 0.0000000000000000000, -1.000000000000000000 ) ) ;
#94 = CARTESIAN_POINT ( 'NONE',  ( 9.184850993605140056E-16, 0.0000000000000000000, 7.499999999999992895 ) ) ;
#95 = SECURITY_CLASSIFICATION_LEVEL ( 'unclassified' ) ;
#96 = ORIENTED_EDGE ( 'NONE', *, *, #80, .F. ) ;
#97 = APPROVAL_ROLE ( '' ) ;
#98 = EDGE_CURVE ( 'NONE', #281, #73, #275, .T. ) ;
#99 = ORIENTED_EDGE ( 'NONE', *, *, #239, .T. ) ;
#100 = EDGE_LOOP ( 'NONE', ( #242, #266, #161 ) ) ;
#101 = AXIS2_PLACEMENT_3D ( 'NONE', #112, #50, #159 ) ;
#102 = FACE_OUTER_BOUND ( 'NONE', #100, .T. ) ;
#103 = PERSON_AND_ORGANIZATION ( #238, #61 ) ;
#104 = AXIS2_PLACEMENT_3D ( 'NONE', #8, #166, #55 ) ;
#105 = EDGE_CURVE ( 'NONE', #281, #261, #7, .T. ) ;
#106 = ORIENTED_EDGE ( 'NONE', *, *, #59, .F. ) ;
#107 = PRODUCT ( 'WA_D50-G2', 'WA_D50-G2', '', ( #205 ) ) ;
#108 = EDGE_CURVE ( 'NONE', #118, #198, #265, .T. ) ;
#109 = FACE_OUTER_BOUND ( 'NONE', #34, .T. ) ;
#110 = DIRECTION ( 'NONE',  ( 0.0000000000000000000, -1.000000000000000000, 0.0000000000000000000 ) ) ;
#111 = ADVANCED_FACE ( 'NONE', ( #102 ), #167, .T. ) ;
#112 = CARTESIAN_POINT ( 'NONE',  ( 0.0000000000000000000, 0.0000000000000000000, 0.0000000000000000000 ) ) ;
#113 = CARTESIAN_POINT ( 'NONE',  ( 0.0000000000000000000, 0.0000000000000000000, 0.0000000000000000000 ) ) ;
#114 = CARTESIAN_POINT ( 'NONE',  ( 0.0000000000000000000, 0.0000000000000000000, 0.0000000000000000000 ) ) ;
#115 = APPLICATION_PROTOCOL_DEFINITION ( 'international standard', 'config_control_design', 1994, #165 ) ;
#116 = FACE_OUTER_BOUND ( 'NONE', #16, .T. ) ;
#117 = AXIS2_PLACEMENT_3D ( 'NONE', #47, #76, #229 ) ;
#118 = VERTEX_POINT ( 'NONE', #230 ) ;
#119 = AXIS2_PLACEMENT_3D ( 'NONE', #245, #70, #209 ) ;
#120 = APPROVAL ( #251, 'NEURÈENÝ' ) ;
#121 = CIRCLE ( 'NONE', #101, 25.00000000000000000 ) ;
#122 = FACE_OUTER_BOUND ( 'NONE', #224, .T. ) ;
#123 = CARTESIAN_POINT ( 'NONE',  ( 0.0000000000000000000, 13.00000000000000178, -7.499999999999997335 ) ) ;
#124 = PRODUCT_RELATED_PRODUCT_CATEGORY ( 'detail', '', ( #107 ) ) ;
#125 = DIRECTION ( 'NONE',  ( 0.0000000000000000000, 0.0000000000000000000, 1.000000000000000000 ) ) ;
#126 = ORIENTED_EDGE ( 'NONE', *, *, #57, .T. ) ;
#127 = DIRECTION ( 'NONE',  ( 0.0000000000000000000, 0.0000000000000000000, -1.000000000000000000 ) ) ;
#128 = ORIENTED_EDGE ( 'NONE', *, *, #169, .T. ) ;
#129 = DIRECTION ( 'NONE',  ( 0.0000000000000000000, -0.7071067811865469066, -0.7071067811865481278 ) ) ;
#130 = APPROVAL_PERSON_ORGANIZATION ( #193, #74, #204 ) ;
#131 = PRODUCT_DEFINITION_FORMATION_WITH_SPECIFIED_SOURCE ( 'LIBOVOLNÝ', '', #107, .NOT_KNOWN. ) ;
#132 = CARTESIAN_POINT ( 'NONE',  ( 0.0000000000000000000, 0.0000000000000000000, -7.999999999999986677 ) ) ;
#133 = ORIENTED_EDGE ( 'NONE', *, *, #57, .F. ) ;
#134 = DATE_AND_TIME ( #145, #262 ) ;
#135 = AXIS2_PLACEMENT_3D ( 'NONE', #114, #223, #67 ) ;
#136 = PERSON_AND_ORGANIZATION_ROLE ( 'design_owner' ) ;
#137 = CARTESIAN_POINT ( 'NONE',  ( 0.0000000000000000000, 0.0000000000000000000, 0.0000000000000000000 ) ) ;
#138 = CARTESIAN_POINT ( 'NONE',  ( 9.184850993605140056E-16, 0.4999999999999926170, 7.499999999999992895 ) ) ;
#139 = CC_DESIGN_PERSON_AND_ORGANIZATION_ASSIGNMENT ( #103, #185, ( #131 ) ) ;
#140 = DIRECTION ( 'NONE',  ( -0.0000000000000000000, -1.000000000000000000, -0.0000000000000000000 ) ) ;
#141 = CARTESIAN_POINT ( 'NONE',  ( 1.530808498934191521E-15, 25.00000000000000000, 0.0000000000000000000 ) ) ;
#142 = DIRECTION ( 'NONE',  ( 0.0000000000000000000, 0.0000000000000000000, -1.000000000000000000 ) ) ;
#143 = FACE_BOUND ( 'NONE', #144, .T. ) ;
#144 = EDGE_LOOP ( 'NONE', ( #78, #174 ) ) ;
#145 = CALENDAR_DATE ( 2019, 7, 1 ) ;
#146 = CC_DESIGN_PERSON_AND_ORGANIZATION_ASSIGNMENT ( #203, #71, ( #241 ) ) ;
#147 = VECTOR ( 'NONE', #176, 1000.000000000000000 ) ;
#148 = DIRECTION ( 'NONE',  ( -0.0000000000000000000, -1.000000000000000000, -0.0000000000000000000 ) ) ;
#149 = DATE_AND_TIME ( #267, #211 ) ;
#150 = AXIS2_PLACEMENT_3D ( 'NONE', #113, #30, #160 ) ;
#151 = ADVANCED_FACE ( 'NONE', ( #116 ), #260, .F. ) ;
#152 = CARTESIAN_POINT ( 'NONE',  ( 0.0000000000000000000, 0.0000000000000000000, -7.499999999999992895 ) ) ;
#153 = CC_DESIGN_APPROVAL ( #264, ( #241 ) ) ;
#154 = FACE_OUTER_BOUND ( 'NONE', #155, .T. ) ;
#155 = EDGE_LOOP ( 'NONE', ( #96, #269, #29, #99 ) ) ;
#156 = CALENDAR_DATE ( 2019, 7, 1 ) ;
#157 = ADVANCED_FACE ( 'NONE', ( #154 ), #272, .F. ) ;
#158 = DIRECTION ( 'NONE',  ( 0.0000000000000000000, -0.0000000000000000000, 1.000000000000000000 ) ) ;
#159 = DIRECTION ( 'NONE',  ( 0.0000000000000000000, 0.0000000000000000000, -1.000000000000000000 ) ) ;
#160 = DIRECTION ( 'NONE',  ( 0.0000000000000000000, 0.0000000000000000000, -1.000000000000000000 ) ) ;
#161 = ORIENTED_EDGE ( 'NONE', *, *, #77, .F. ) ;
#162 = CARTESIAN_POINT ( 'NONE',  ( 9.184850993605140056E-16, 0.4999999999999926170, 7.499999999999992895 ) ) ;
#163 =( NAMED_UNIT ( * ) PLANE_ANGLE_UNIT ( ) SI_UNIT ( $, .RADIAN. ) );
#164 = AXIS2_PLACEMENT_3D ( 'NONE', #182, #4, #11 ) ;
#165 = APPLICATION_CONTEXT ( 'configuration controlled 3d designs of mechanical parts and assemblies' ) ;
#166 = DIRECTION ( 'NONE',  ( -0.0000000000000000000, -1.000000000000000000, -0.0000000000000000000 ) ) ;
#167 = SPHERICAL_SURFACE ( 'NONE', #199, 25.00000000000000000 ) ;
#168 = LOCAL_TIME ( 10, 11, 5.000000000000000000, #54 ) ;
#169 = EDGE_CURVE ( 'NONE', #37, #21, #33, .T. ) ;
#170 = ORIENTED_EDGE ( 'NONE', *, *, #64, .F. ) ;
#171 = FACE_OUTER_BOUND ( 'NONE', #278, .T. ) ;
#172 = AXIS2_PLACEMENT_3D ( 'NONE', #219, #14, #127 ) ;
#173 = LOCAL_TIME ( 10, 11, 5.000000000000000000, #58 ) ;
#174 = ORIENTED_EDGE ( 'NONE', *, *, #108, .T. ) ;
#175 = APPROVAL_DATE_TIME ( #22, #120 ) ;
#176 = DIRECTION ( 'NONE',  ( -0.0000000000000000000, -1.000000000000000000, -0.0000000000000000000 ) ) ;
#177 = AXIS2_PLACEMENT_3D ( 'NONE', #28, #249, #142 ) ;
#178 = FACE_OUTER_BOUND ( 'NONE', #232, .T. ) ;
#179 = FACE_OUTER_BOUND ( 'NONE', #201, .T. ) ;
#180 = ORIENTED_EDGE ( 'NONE', *, *, #39, .F. ) ;
#181 = EDGE_CURVE ( 'NONE', #66, #198, #216, .T. ) ;
#182 = CARTESIAN_POINT ( 'NONE',  ( 0.0000000000000000000, 0.0000000000000000000, 0.0000000000000000000 ) ) ;
#183 = APPROVAL_STATUS ( 'not_yet_approved' ) ;
#184 = CARTESIAN_POINT ( 'NONE',  ( 0.0000000000000000000, 0.4999999999999926170, -7.499999999999992895 ) ) ;
#185 = PERSON_AND_ORGANIZATION_ROLE ( 'design_supplier' ) ;
#186 = CIRCLE ( 'NONE', #213, 7.499999999999997335 ) ;
#187 = SHAPE_DEFINITION_REPRESENTATION ( #24, #65 ) ;
#188 =( LENGTH_UNIT ( ) NAMED_UNIT ( * ) SI_UNIT ( .MILLI., .METRE. ) );
#189 = AXIS2_PLACEMENT_3D ( 'NONE', #53, #191, #15 ) ;
#190 = CARTESIAN_POINT ( 'NONE',  ( 25.00000000000000000, 0.0000000000000000000, 0.0000000000000000000 ) ) ;
#191 = DIRECTION ( 'NONE',  ( 0.0000000000000000000, 1.000000000000000000, 0.0000000000000000000 ) ) ;
#192 = ORIENTED_EDGE ( 'NONE', *, *, #108, .F. ) ;
#193 = PERSON_AND_ORGANIZATION ( #238, #61 ) ;
#194 = CARTESIAN_POINT ( 'NONE',  ( 9.184850993605145972E-16, 13.00000000000000178, 7.499999999999998224 ) ) ;
#195 = VECTOR ( 'NONE', #31, 1000.000000000000114 ) ;
#196 = ORIENTED_EDGE ( 'NONE', *, *, #59, .T. ) ;
#197 = PERSON_AND_ORGANIZATION ( #238, #61 ) ;
#198 = VERTEX_POINT ( 'NONE', #132 ) ;
#199 = AXIS2_PLACEMENT_3D ( 'NONE', #137, #1, #81 ) ;
#200 = CIRCLE ( 'NONE', #215, 7.499999999999992895 ) ;
#201 = EDGE_LOOP ( 'NONE', ( #56, #38 ) ) ;
#202 = AXIS2_PLACEMENT_3D ( 'NONE', #69, #253, #93 ) ;
#203 = PERSON_AND_ORGANIZATION ( #238, #61 ) ;
#204 = APPROVAL_ROLE ( '' ) ;
#205 = MECHANICAL_CONTEXT ( 'NONE', #165, 'mechanical' ) ;
#206 = PLANE ( 'NONE',  #234 ) ;
#207 =( GEOMETRIC_REPRESENTATION_CONTEXT ( 3 ) GLOBAL_UNCERTAINTY_ASSIGNED_CONTEXT ( ( #13 ) ) GLOBAL_UNIT_ASSIGNED_CONTEXT ( ( #188, #163, #52 ) ) REPRESENTATION_CONTEXT ( 'NONE', 'WORKASPACE' ) );
#208 = PLANE ( 'NONE',  #135 ) ;
#209 = DIRECTION ( 'NONE',  ( 0.0000000000000000000, 0.0000000000000000000, -1.000000000000000000 ) ) ;
#210 = VECTOR ( 'NONE', #129, 1000.000000000000114 ) ;
#211 = LOCAL_TIME ( 10, 11, 5.000000000000000000, #41 ) ;
#212 = PERSON_AND_ORGANIZATION ( #238, #61 ) ;
#213 = AXIS2_PLACEMENT_3D ( 'NONE', #20, #148, #279 ) ;
#214 = ORIENTED_EDGE ( 'NONE', *, *, #86, .T. ) ;
#215 = AXIS2_PLACEMENT_3D ( 'NONE', #32, #49, #252 ) ;
#216 = LINE ( 'NONE', #44, #210 ) ;
#217 = CARTESIAN_POINT ( 'NONE',  ( 0.0000000000000000000, 0.0000000000000000000, 0.0000000000000000000 ) ) ;
#218 = PERSON_AND_ORGANIZATION ( #238, #61 ) ;
#219 = CARTESIAN_POINT ( 'NONE',  ( 0.0000000000000000000, 0.4999999999999926170, 0.0000000000000000000 ) ) ;
#220 = ORIENTED_EDGE ( 'NONE', *, *, #80, .T. ) ;
#221 = AXIS2_PLACEMENT_3D ( 'NONE', #217, #125, #17 ) ;
#222 = LINE ( 'NONE', #152, #147 ) ;
#223 = DIRECTION ( 'NONE',  ( 0.0000000000000000000, -1.000000000000000000, -0.0000000000000000000 ) ) ;
#224 = EDGE_LOOP ( 'NONE', ( #133, #220, #196, #170 ) ) ;
#225 = DIRECTION ( 'NONE',  ( 1.224646799147353207E-16, -0.0000000000000000000, 1.000000000000000000 ) ) ;
#226 = PERSON_AND_ORGANIZATION_ROLE ( 'creator' ) ;
#227 = DATE_TIME_ROLE ( 'classification_date' ) ;
#228 = CC_DESIGN_APPROVAL ( #74, ( #131 ) ) ;
#229 = DIRECTION ( 'NONE',  ( 1.000000000000000000, 0.0000000000000000000, 0.0000000000000000000 ) ) ;
#230 = CARTESIAN_POINT ( 'NONE',  ( 9.797174393178809880E-16, 0.0000000000000000000, 7.999999999999986677 ) ) ;
#231 = CC_DESIGN_DATE_AND_TIME_ASSIGNMENT ( #26, #9, ( #18 ) ) ;
#232 = EDGE_LOOP ( 'NONE', ( #128, #126 ) ) ;
#233 = PERSON_AND_ORGANIZATION ( #238, #61 ) ;
#234 = AXIS2_PLACEMENT_3D ( 'NONE', #72, #268, #158 ) ;
#235 = LINE ( 'NONE', #162, #195 ) ;
#236 = CARTESIAN_POINT ( 'NONE',  ( 0.0000000000000000000, 0.0000000000000000000, 0.0000000000000000000 ) ) ;
#237 = ORIENTED_EDGE ( 'NONE', *, *, #105, .F. ) ;
#238 = PERSON ( 'NEURÈENÝ', 'NEURÈENÝ', 'NEURÈENÝ', ('NEURÈENÝ'), ('NEURÈENÝ'), ('NEURÈENÝ') ) ;
#239 = EDGE_CURVE ( 'NONE', #66, #257, #200, .T. ) ;
#240 = ADVANCED_FACE ( 'NONE', ( #143, #179 ), #208, .T. ) ;
#241 = SECURITY_CLASSIFICATION ( '', '', #95 ) ;
#242 = ORIENTED_EDGE ( 'NONE', *, *, #98, .F. ) ;
#243 = CARTESIAN_POINT ( 'NONE',  ( 0.0000000000000000000, 0.4999999999999926170, 0.0000000000000000000 ) ) ;
#244 = AXIS2_PLACEMENT_3D ( 'NONE', #27, #225, #250 ) ;
#245 = CARTESIAN_POINT ( 'NONE',  ( 0.0000000000000000000, 0.4999999999999926170, 0.0000000000000000000 ) ) ;
#246 = ORIENTED_EDGE ( 'NONE', *, *, #181, .F. ) ;
#247 = APPROVAL_PERSON_ORGANIZATION ( #19, #264, #97 ) ;
#248 = ADVANCED_FACE ( 'NONE', ( #122 ), #277, .F. ) ;
#249 = DIRECTION ( 'NONE',  ( -0.0000000000000000000, -1.000000000000000000, -0.0000000000000000000 ) ) ;
#250 = DIRECTION ( 'NONE',  ( 1.000000000000000000, 0.0000000000000000000, -1.224646799147353207E-16 ) ) ;
#251 = APPROVAL_STATUS ( 'not_yet_approved' ) ;
#252 = DIRECTION ( 'NONE',  ( 0.0000000000000000000, 0.0000000000000000000, -1.000000000000000000 ) ) ;
#253 = DIRECTION ( 'NONE',  ( -0.0000000000000000000, -1.000000000000000000, -0.0000000000000000000 ) ) ;
#254 = CC_DESIGN_APPROVAL ( #120, ( #18 ) ) ;
#255 = SPHERICAL_SURFACE ( 'NONE', #221, 25.00000000000000000 ) ;
#256 = CALENDAR_DATE ( 2019, 7, 1 ) ;
#257 = VERTEX_POINT ( 'NONE', #138 ) ;
#258 = CC_DESIGN_PERSON_AND_ORGANIZATION_ASSIGNMENT ( #197, #226, ( #131 ) ) ;
#259 = DIRECTION ( 'NONE',  ( 0.0000000000000000000, 0.0000000000000000000, -1.000000000000000000 ) ) ;
#260 = CONICAL_SURFACE ( 'NONE', #45, 7.499999999999992895, 0.7853981633974491672 ) ;
#261 = VERTEX_POINT ( 'NONE', #190 ) ;
#262 = LOCAL_TIME ( 10, 11, 5.000000000000000000, #91 ) ;
#263 = CC_DESIGN_PERSON_AND_ORGANIZATION_ASSIGNMENT ( #233, #136, ( #107 ) ) ;
#264 = APPROVAL ( #51, 'NEURÈENÝ' ) ;
#265 = CIRCLE ( 'NONE', #189, 7.999999999999986677 ) ;
#266 = ORIENTED_EDGE ( 'NONE', *, *, #105, .T. ) ;
#267 = CALENDAR_DATE ( 2019, 7, 1 ) ;
#268 = DIRECTION ( 'NONE',  ( 0.0000000000000000000, 1.000000000000000000, 0.0000000000000000000 ) ) ;
#269 = ORIENTED_EDGE ( 'NONE', *, *, #169, .F. ) ;
#270 = PERSON_AND_ORGANIZATION_ROLE ( 'creator' ) ;
#271 = APPROVAL_ROLE ( '' ) ;
#272 = CYLINDRICAL_SURFACE ( 'NONE', #177, 7.499999999999992895 ) ;
#273 = EDGE_CURVE ( 'NONE', #198, #118, #43, .T. ) ;
#274 = CC_DESIGN_PERSON_AND_ORGANIZATION_ASSIGNMENT ( #218, #270, ( #18 ) ) ;
#275 = CIRCLE ( 'NONE', #244, 25.00000000000000000 ) ;
#276 = CC_DESIGN_DATE_AND_TIME_ASSIGNMENT ( #134, #227, ( #241 ) ) ;
#277 = CYLINDRICAL_SURFACE ( 'NONE', #202, 7.499999999999992895 ) ;
#278 = EDGE_LOOP ( 'NONE', ( #237, #82, #180 ) ) ;
#279 = DIRECTION ( 'NONE',  ( 0.0000000000000000000, 0.0000000000000000000, -1.000000000000000000 ) ) ;
#280 = CC_DESIGN_SECURITY_CLASSIFICATION ( #241, ( #131 ) ) ;
#281 = VERTEX_POINT ( 'NONE', #141 ) ;
ENDSEC;
END-ISO-10303-21;
