ISO-10303-21;
HEADER;
FILE_DESCRIPTION (( 'STEP AP203' ),
    '1' );
FILE_NAME ('A19_04-PVC.STEP',
    '2024-04-30T10:22:59',
    ( '' ),
    ( '' ),
    'SwSTEP 2.0',
    'SolidWorks 2019',
    '' );
FILE_SCHEMA (( 'CONFIG_CONTROL_DESIGN' ));
ENDSEC;

DATA;
#1 = APPROVAL_PERSON_ORGANIZATION ( #135, #217, #171 ) ;
#2 = CARTESIAN_POINT ( 'NONE',  ( -2.099999999999999201, -16.54284522410545222, 2.571758278209445408E-16 ) ) ;
#3 = CC_DESIGN_PERSON_AND_ORGANIZATION_ASSIGNMENT ( #209, #71, ( #108 ) ) ;
#4 = FACE_OUTER_BOUND ( 'NONE', #30, .T. ) ;
#5 = CYLINDRICAL_SURFACE ( 'NONE', #221, 2.100000000000002753 ) ;
#6 = DIRECTION ( 'NONE',  ( 1.000000000000000000, 0.000000000000000000, 0.000000000000000000 ) ) ;
#7 = CIRCLE ( 'NONE', #26, 6.350000000000003197 ) ;
#8 = LOCAL_TIME ( 12, 22, 59.00000000000000000, #228 ) ;
#9 = PERSON_AND_ORGANIZATION_ROLE ( 'creator' ) ;
#10 = CC_DESIGN_PERSON_AND_ORGANIZATION_ASSIGNMENT ( #52, #186, ( #59 ) ) ;
#11 = DIRECTION ( 'NONE',  ( 1.000000000000000000, 0.000000000000000000, -1.224646799147353207E-16 ) ) ;
#12 = DIRECTION ( 'NONE',  ( 1.000000000000000000, 4.439252989704425511E-16, 0.000000000000000000 ) ) ;
#13 = VERTEX_POINT ( 'NONE', #216 ) ;
#14 = APPROVAL_PERSON_ORGANIZATION ( #69, #95, #167 ) ;
#15 = AXIS2_PLACEMENT_3D ( 'NONE', #106, #87, #50 ) ;
#16 = CIRCLE ( 'NONE', #56, 2.100000000000003642 ) ;
#17 = LOCAL_TIME ( 12, 22, 59.00000000000000000, #23 ) ;
#18 = DIRECTION ( 'NONE',  ( 4.370126198688811580E-16, -1.000000000000000000, -0.000000000000000000 ) ) ;
#19 = EDGE_CURVE ( 'NONE', #170, #173, #159, .T. ) ;
#20 = PLANE ( 'NONE',  #188 ) ;
#21 = DIRECTION ( 'NONE',  ( 1.000000000000000000, 0.000000000000000000, 0.000000000000000000 ) ) ;
#22 = DIRECTION ( 'NONE',  ( -1.000000000000000000, 0.000000000000000000, 0.000000000000000000 ) ) ;
#23 = COORDINATED_UNIVERSAL_TIME_OFFSET ( 1, 0, .AHEAD. ) ;
#24 = DATE_AND_TIME ( #105, #211 ) ;
#25 = PERSON_AND_ORGANIZATION ( #116, #91 ) ;
#26 = AXIS2_PLACEMENT_3D ( 'NONE', #229, #103, #12 ) ;
#27 = CC_DESIGN_DATE_AND_TIME_ASSIGNMENT ( #226, #100, ( #59 ) ) ;
#28 = APPROVAL_DATE_TIME ( #190, #95 ) ;
#29 = CARTESIAN_POINT ( 'NONE',  ( 2.100000000000000977, -4.600000000000000533, 0.000000000000000000 ) ) ;
#30 = EDGE_LOOP ( 'NONE', ( #55, #141, #158 ) ) ;
#31 = COORDINATED_UNIVERSAL_TIME_OFFSET ( 1, 0, .AHEAD. ) ;
#32 = FACE_OUTER_BOUND ( 'NONE', #107, .T. ) ;
#33 = VERTEX_POINT ( 'NONE', #29 ) ;
#34 = CIRCLE ( 'NONE', #174, 2.100000000000002309 ) ;
#35 = VECTOR ( 'NONE', #205, 1000.000000000000000 ) ;
#36 = EDGE_CURVE ( 'NONE', #173, #170, #7, .T. ) ;
#37 = EDGE_CURVE ( 'NONE', #214, #33, #201, .T. ) ;
#38 = AXIS2_PLACEMENT_3D ( 'NONE', #82, #150, #41 ) ;
#39 = CC_DESIGN_APPROVAL ( #217, ( #108 ) ) ;
#40 = CC_DESIGN_SECURITY_CLASSIFICATION ( #59, ( #108 ) ) ;
#41 = DIRECTION ( 'NONE',  ( 1.000000000000000000, 4.300720468418829105E-16, 0.000000000000000000 ) ) ;
#42 = FACE_OUTER_BOUND ( 'NONE', #189, .T. ) ;
#43 = AXIS2_PLACEMENT_3D ( 'NONE', #60, #163, #22 ) ;
#44 = LINE ( 'NONE', #94, #35 ) ;
#45 = SECURITY_CLASSIFICATION_LEVEL ( 'unclassified' ) ;
#46 = APPROVAL_DATE_TIME ( #24, #161 ) ;
#47 = ADVANCED_FACE ( 'NONE', ( #32, #155 ), #121, .T. ) ;
#48 = ORIENTED_EDGE ( 'NONE', *, *, #109, .F. ) ;
#49 = PERSON_AND_ORGANIZATION_ROLE ( 'creator' ) ;
#50 = DIRECTION ( 'NONE',  ( 1.000000000000000000, 4.439252989704425511E-16, 0.000000000000000000 ) ) ;
#51 = AXIS2_PLACEMENT_3D ( 'NONE', #68, #101, #123 ) ;
#52 = PERSON_AND_ORGANIZATION ( #116, #91 ) ;
#53 = DIRECTION ( 'NONE',  ( 1.000000000000000000, 4.130293990420961994E-16, 0.000000000000000000 ) ) ;
#54 = ORIENTED_EDGE ( 'NONE', *, *, #67, .F. ) ;
#55 = ORIENTED_EDGE ( 'NONE', *, *, #145, .F. ) ;
#56 = AXIS2_PLACEMENT_3D ( 'NONE', #62, #77, #148 ) ;
#57 = SPHERICAL_SURFACE ( 'NONE', #75, 12.10069444444443931 ) ;
#58 = CIRCLE ( 'NONE', #110, 2.100000000000003642 ) ;
#59 = SECURITY_CLASSIFICATION ( '', '', #45 ) ;
#60 = CARTESIAN_POINT ( 'NONE',  ( 2.168404344971008868E-15, -12.10069444444443931, 0.000000000000000000 ) ) ;
#61 = CARTESIAN_POINT ( 'NONE',  ( -2.378798000486018668E-15, 0.000000000000000000, 0.000000000000000000 ) ) ;
#62 = CARTESIAN_POINT ( 'NONE',  ( -2.560257515563240344E-15, -1.800000000000001155, 0.000000000000000000 ) ) ;
#63 = EDGE_CURVE ( 'NONE', #125, #173, #144, .T. ) ;
#64 = EDGE_CURVE ( 'NONE', #13, #104, #58, .T. ) ;
#65 = MECHANICAL_CONTEXT ( 'NONE', #177, 'mechanical' ) ;
#66 = CC_DESIGN_APPROVAL ( #95, ( #59 ) ) ;
#67 = EDGE_CURVE ( 'NONE', #33, #214, #34, .T. ) ;
#68 = CARTESIAN_POINT ( 'NONE',  ( 0.000000000000000000, 0.000000000000000000, 0.000000000000000000 ) ) ;
#69 = PERSON_AND_ORGANIZATION ( #116, #91 ) ;
#70 = DIRECTION ( 'NONE',  ( 1.000000000000000000, 4.130293990420964952E-16, 0.000000000000000000 ) ) ;
#71 = PERSON_AND_ORGANIZATION_ROLE ( 'design_supplier' ) ;
#72 = DIRECTION ( 'NONE',  ( 1.000000000000000000, 4.370126198688811580E-16, 0.000000000000000000 ) ) ;
#73 = ORIENTED_EDGE ( 'NONE', *, *, #215, .F. ) ;
#74 = ORIENTED_EDGE ( 'NONE', *, *, #138, .F. ) ;
#75 = AXIS2_PLACEMENT_3D ( 'NONE', #76, #98, #222 ) ;
#76 = CARTESIAN_POINT ( 'NONE',  ( 2.168404344971008868E-15, -12.10069444444443931, 0.000000000000000000 ) ) ;
#77 = DIRECTION ( 'NONE',  ( 4.370126198688811580E-16, -1.000000000000000000, -0.000000000000000000 ) ) ;
#78 = UNCERTAINTY_MEASURE_WITH_UNIT (LENGTH_MEASURE( 1.000000000000000082E-05 ), #162, 'distance_accuracy_value', 'NONE');
#79 = CC_DESIGN_DATE_AND_TIME_ASSIGNMENT ( #118, #154, ( #113 ) ) ;
#80 = APPROVAL_PERSON_ORGANIZATION ( #164, #161, #183 ) ;
#81 = DIRECTION ( 'NONE',  ( 4.370126198688811580E-16, -1.000000000000000000, -0.000000000000000000 ) ) ;
#82 = CARTESIAN_POINT ( 'NONE',  ( 2.168404344971008868E-15, -12.10069444444443931, 0.000000000000000000 ) ) ;
#83 = APPROVAL_STATUS ( 'not_yet_approved' ) ;
#84 = APPROVAL_STATUS ( 'not_yet_approved' ) ;
#85 = CALENDAR_DATE ( 2024, 30, 4 ) ;
#86 = DIRECTION ( 'NONE',  ( 4.370126198688811580E-16, -1.000000000000000000, -0.000000000000000000 ) ) ;
#87 = DIRECTION ( 'NONE',  ( 4.370126198688811580E-16, -1.000000000000000000, -0.000000000000000000 ) ) ;
#88 = ORIENTED_EDGE ( 'NONE', *, *, #215, .T. ) ;
#89 = DIRECTION ( 'NONE',  ( 4.370126198688811580E-16, -1.000000000000000000, -0.000000000000000000 ) ) ;
#90 = ADVANCED_BREP_SHAPE_REPRESENTATION ( 'A19_04-PVC', ( #96, #51 ), #112 ) ;
#91 = ORGANIZATION ( 'NEURÈENÝ', 'NEURÈENÝ', '' ) ;
#92 = ORIENTED_EDGE ( 'NONE', *, *, #109, .T. ) ;
#93 = PRODUCT_RELATED_PRODUCT_CATEGORY ( 'detail', '', ( #115 ) ) ;
#94 = CARTESIAN_POINT ( 'NONE',  ( 2.100000000000006750, -16.54284522410545222, 0.000000000000000000 ) ) ;
#95 = APPROVAL ( #156, 'NEURÈENÝ' ) ;
#96 = MANIFOLD_SOLID_BREP ( 'Rotovat1', #111 ) ;
#97 = FACE_OUTER_BOUND ( 'NONE', #230, .T. ) ;
#98 = DIRECTION ( 'NONE',  ( 0.000000000000000000, -0.000000000000000000, 1.000000000000000000 ) ) ;
#99 = PRODUCT_DEFINITION_SHAPE ( 'NONE', 'NONE',  #113 ) ;
#100 = DATE_TIME_ROLE ( 'classification_date' ) ;
#101 = DIRECTION ( 'NONE',  ( 0.000000000000000000, 0.000000000000000000, 1.000000000000000000 ) ) ;
#102 = SHAPE_DEFINITION_REPRESENTATION ( #99, #90 ) ;
#103 = DIRECTION ( 'NONE',  ( 4.370126198688811580E-16, -1.000000000000000000, -0.000000000000000000 ) ) ;
#104 = VERTEX_POINT ( 'NONE', #195 ) ;
#105 = CALENDAR_DATE ( 2024, 30, 4 ) ;
#106 = CARTESIAN_POINT ( 'NONE',  ( -2.560257515563240344E-15, -1.800000000000002931, 0.000000000000000000 ) ) ;
#107 = EDGE_LOOP ( 'NONE', ( #224, #152 ) ) ;
#108 = PRODUCT_DEFINITION_FORMATION_WITH_SPECIFIED_SOURCE ( 'LIBOVOLNÝ', '', #115, .NOT_KNOWN. ) ;
#109 = EDGE_CURVE ( 'NONE', #104, #214, #137, .T. ) ;
#110 = AXIS2_PLACEMENT_3D ( 'NONE', #227, #86, #53 ) ;
#111 = CLOSED_SHELL ( 'NONE', ( #165, #199, #166, #47, #146, #130 ) ) ;
#112 =( GEOMETRIC_REPRESENTATION_CONTEXT ( 3 ) GLOBAL_UNCERTAINTY_ASSIGNED_CONTEXT ( ( #78 ) ) GLOBAL_UNIT_ASSIGNED_CONTEXT ( ( #162, #203, #134 ) ) REPRESENTATION_CONTEXT ( 'NONE', 'WORKASPACE' ) );
#113 = PRODUCT_DEFINITION ( 'NEZNÁMÝ', '', #108, #185 ) ;
#114 = CARTESIAN_POINT ( 'NONE',  ( 6.350000000000001421, -1.800000000000000044, 0.000000000000000000 ) ) ;
#115 = PRODUCT ( 'A19_04-PVC', 'A19_04-PVC', '', ( #65 ) ) ;
#116 = PERSON ( 'NEURÈENÝ', 'NEURÈENÝ', 'NEURÈENÝ', ('NEURÈENÝ'), ('NEURÈENÝ'), ('NEURÈENÝ') ) ;
#117 = APPROVAL_DATE_TIME ( #223, #217 ) ;
#118 = DATE_AND_TIME ( #207, #8 ) ;
#119 = EDGE_LOOP ( 'NONE', ( #142, #160, #136 ) ) ;
#120 = CALENDAR_DATE ( 2024, 30, 4 ) ;
#121 = PLANE ( 'NONE',  #128 ) ;
#122 = CC_DESIGN_PERSON_AND_ORGANIZATION_ASSIGNMENT ( #25, #9, ( #108 ) ) ;
#123 = DIRECTION ( 'NONE',  ( 1.000000000000000000, 0.000000000000000000, 0.000000000000000000 ) ) ;
#124 = DIRECTION ( 'NONE',  ( 4.370126198688811580E-16, -1.000000000000000000, -0.000000000000000000 ) ) ;
#125 = VERTEX_POINT ( 'NONE', #61 ) ;
#126 = EDGE_LOOP ( 'NONE', ( #231, #73 ) ) ;
#127 = VECTOR ( 'NONE', #206, 1000.000000000000000 ) ;
#128 = AXIS2_PLACEMENT_3D ( 'NONE', #169, #89, #72 ) ;
#129 = ORIENTED_EDGE ( 'NONE', *, *, #37, .T. ) ;
#130 = ADVANCED_FACE ( 'NONE', ( #219 ), #20, .T. ) ;
#131 = CARTESIAN_POINT ( 'NONE',  ( 7.879554624106714787E-16, -4.600000000000000533, 0.000000000000000000 ) ) ;
#132 = DIRECTION ( 'NONE',  ( 4.370126198688811580E-16, -1.000000000000000000, -0.000000000000000000 ) ) ;
#133 = DIRECTION ( 'NONE',  ( 1.000000000000000000, 4.370126198688811580E-16, 0.000000000000000000 ) ) ;
#134 =( NAMED_UNIT ( * ) SI_UNIT ( $, .STERADIAN. ) SOLID_ANGLE_UNIT ( ) );
#135 = PERSON_AND_ORGANIZATION ( #116, #91 ) ;
#136 = ORIENTED_EDGE ( 'NONE', *, *, #36, .F. ) ;
#137 = LINE ( 'NONE', #2, #127 ) ;
#138 = EDGE_CURVE ( 'NONE', #13, #33, #44, .T. ) ;
#139 = PERSON_AND_ORGANIZATION_ROLE ( 'design_owner' ) ;
#140 = CARTESIAN_POINT ( 'NONE',  ( 2.168404344971008868E-15, -12.10069444444443931, 0.000000000000000000 ) ) ;
#141 = ORIENTED_EDGE ( 'NONE', *, *, #63, .T. ) ;
#142 = ORIENTED_EDGE ( 'NONE', *, *, #63, .F. ) ;
#143 = LOCAL_TIME ( 12, 22, 59.00000000000000000, #212 ) ;
#144 = CIRCLE ( 'NONE', #198, 12.10069444444443931 ) ;
#145 = EDGE_CURVE ( 'NONE', #125, #170, #182, .T. ) ;
#146 = ADVANCED_FACE ( 'NONE', ( #42 ), #204, .T. ) ;
#147 = CARTESIAN_POINT ( 'NONE',  ( -2.100000000000003642, -4.600000000000002309, 2.571758278209445408E-16 ) ) ;
#148 = DIRECTION ( 'NONE',  ( 1.000000000000000000, 4.130293990420961994E-16, 0.000000000000000000 ) ) ;
#149 = FACE_OUTER_BOUND ( 'NONE', #119, .T. ) ;
#150 = DIRECTION ( 'NONE',  ( 0.000000000000000000, -0.000000000000000000, 1.000000000000000000 ) ) ;
#151 = PERSON_AND_ORGANIZATION ( #116, #91 ) ;
#152 = ORIENTED_EDGE ( 'NONE', *, *, #36, .T. ) ;
#153 = COORDINATED_UNIVERSAL_TIME_OFFSET ( 1, 0, .AHEAD. ) ;
#154 = DATE_TIME_ROLE ( 'creation_date' ) ;
#155 = FACE_BOUND ( 'NONE', #126, .T. ) ;
#156 = APPROVAL_STATUS ( 'not_yet_approved' ) ;
#157 = CARTESIAN_POINT ( 'NONE',  ( -1.336622179930373574E-15, -4.600000000000001421, 0.000000000000000000 ) ) ;
#158 = ORIENTED_EDGE ( 'NONE', *, *, #19, .F. ) ;
#159 = CIRCLE ( 'NONE', #15, 6.350000000000003197 ) ;
#160 = ORIENTED_EDGE ( 'NONE', *, *, #145, .T. ) ;
#161 = APPROVAL ( #84, 'NEURÈENÝ' ) ;
#162 =( LENGTH_UNIT ( ) NAMED_UNIT ( * ) SI_UNIT ( .MILLI., .METRE. ) );
#163 = DIRECTION ( 'NONE',  ( 0.000000000000000000, 0.000000000000000000, -1.000000000000000000 ) ) ;
#164 = PERSON_AND_ORGANIZATION ( #116, #91 ) ;
#165 = ADVANCED_FACE ( 'NONE', ( #97 ), #5, .T. ) ;
#166 = ADVANCED_FACE ( 'NONE', ( #149 ), #181, .T. ) ;
#167 = APPROVAL_ROLE ( '' ) ;
#168 = AXIS2_PLACEMENT_3D ( 'NONE', #172, #213, #191 ) ;
#169 = CARTESIAN_POINT ( 'NONE',  ( 2.100000000000000977, -1.800000000000000711, 0.000000000000000000 ) ) ;
#170 = VERTEX_POINT ( 'NONE', #114 ) ;
#171 = APPROVAL_ROLE ( '' ) ;
#172 = CARTESIAN_POINT ( 'NONE',  ( -1.336622179930373574E-15, -4.600000000000001421, 0.000000000000000000 ) ) ;
#173 = VERTEX_POINT ( 'NONE', #180 ) ;
#174 = AXIS2_PLACEMENT_3D ( 'NONE', #157, #124, #70 ) ;
#175 = CC_DESIGN_APPROVAL ( #161, ( #113 ) ) ;
#176 = CC_DESIGN_PERSON_AND_ORGANIZATION_ASSIGNMENT ( #151, #49, ( #113 ) ) ;
#177 = APPLICATION_CONTEXT ( 'configuration controlled 3d designs of mechanical parts and assemblies' ) ;
#178 = AXIS2_PLACEMENT_3D ( 'NONE', #179, #132, #6 ) ;
#179 = CARTESIAN_POINT ( 'NONE',  ( 3.882551900144505516E-15, -16.54284522410545222, 0.000000000000000000 ) ) ;
#180 = CARTESIAN_POINT ( 'NONE',  ( -6.350000000000006750, -1.800000000000005151, 7.776507174585697093E-16 ) ) ;
#181 = SPHERICAL_SURFACE ( 'NONE', #38, 12.10069444444443931 ) ;
#182 = CIRCLE ( 'NONE', #43, 12.10069444444443931 ) ;
#183 = APPROVAL_ROLE ( '' ) ;
#184 = CARTESIAN_POINT ( 'NONE',  ( 3.882551900144505516E-15, -16.54284522410545222, 0.000000000000000000 ) ) ;
#185 = DESIGN_CONTEXT ( 'detailed design', #218, 'design' ) ;
#186 = PERSON_AND_ORGANIZATION_ROLE ( 'classification_officer' ) ;
#187 = CALENDAR_DATE ( 2024, 30, 4 ) ;
#188 = AXIS2_PLACEMENT_3D ( 'NONE', #131, #81, #133 ) ;
#189 = EDGE_LOOP ( 'NONE', ( #48, #88, #196, #200 ) ) ;
#190 = DATE_AND_TIME ( #120, #143 ) ;
#191 = DIRECTION ( 'NONE',  ( 1.000000000000000000, 4.130293990420964952E-16, 0.000000000000000000 ) ) ;
#192 = LOCAL_TIME ( 12, 22, 59.00000000000000000, #153 ) ;
#193 = ORIENTED_EDGE ( 'NONE', *, *, #64, .T. ) ;
#194 = APPLICATION_PROTOCOL_DEFINITION ( 'international standard', 'config_control_design', 1994, #177 ) ;
#195 = CARTESIAN_POINT ( 'NONE',  ( -2.100000000000006306, -1.800000000000002043, 2.571758278209447873E-16 ) ) ;
#196 = ORIENTED_EDGE ( 'NONE', *, *, #138, .T. ) ;
#197 = EDGE_LOOP ( 'NONE', ( #202, #129 ) ) ;
#198 = AXIS2_PLACEMENT_3D ( 'NONE', #140, #210, #11 ) ;
#199 = ADVANCED_FACE ( 'NONE', ( #4 ), #57, .T. ) ;
#200 = ORIENTED_EDGE ( 'NONE', *, *, #37, .F. ) ;
#201 = CIRCLE ( 'NONE', #168, 2.100000000000002309 ) ;
#202 = ORIENTED_EDGE ( 'NONE', *, *, #67, .T. ) ;
#203 =( NAMED_UNIT ( * ) PLANE_ANGLE_UNIT ( ) SI_UNIT ( $, .RADIAN. ) );
#204 = CYLINDRICAL_SURFACE ( 'NONE', #178, 2.100000000000002753 ) ;
#205 = DIRECTION ( 'NONE',  ( 4.370126198688811580E-16, -1.000000000000000000, -0.000000000000000000 ) ) ;
#206 = DIRECTION ( 'NONE',  ( 4.370126198688811580E-16, -1.000000000000000000, -0.000000000000000000 ) ) ;
#207 = CALENDAR_DATE ( 2024, 30, 4 ) ;
#208 = APPLICATION_PROTOCOL_DEFINITION ( 'international standard', 'config_control_design', 1994, #218 ) ;
#209 = PERSON_AND_ORGANIZATION ( #116, #91 ) ;
#210 = DIRECTION ( 'NONE',  ( 1.224646799147353207E-16, 5.351861061094242727E-32, 1.000000000000000000 ) ) ;
#211 = LOCAL_TIME ( 12, 22, 59.00000000000000000, #31 ) ;
#212 = COORDINATED_UNIVERSAL_TIME_OFFSET ( 1, 0, .AHEAD. ) ;
#213 = DIRECTION ( 'NONE',  ( 4.370126198688811580E-16, -1.000000000000000000, -0.000000000000000000 ) ) ;
#214 = VERTEX_POINT ( 'NONE', #147 ) ;
#215 = EDGE_CURVE ( 'NONE', #104, #13, #16, .T. ) ;
#216 = CARTESIAN_POINT ( 'NONE',  ( 2.100000000000000977, -1.800000000000000488, 0.000000000000000000 ) ) ;
#217 = APPROVAL ( #83, 'NEURÈENÝ' ) ;
#218 = APPLICATION_CONTEXT ( 'configuration controlled 3d designs of mechanical parts and assemblies' ) ;
#219 = FACE_OUTER_BOUND ( 'NONE', #197, .T. ) ;
#220 = CC_DESIGN_PERSON_AND_ORGANIZATION_ASSIGNMENT ( #225, #139, ( #115 ) ) ;
#221 = AXIS2_PLACEMENT_3D ( 'NONE', #184, #18, #21 ) ;
#222 = DIRECTION ( 'NONE',  ( 1.000000000000000000, 4.300720468418829105E-16, 0.000000000000000000 ) ) ;
#223 = DATE_AND_TIME ( #187, #17 ) ;
#224 = ORIENTED_EDGE ( 'NONE', *, *, #19, .T. ) ;
#225 = PERSON_AND_ORGANIZATION ( #116, #91 ) ;
#226 = DATE_AND_TIME ( #85, #192 ) ;
#227 = CARTESIAN_POINT ( 'NONE',  ( -2.560257515563240344E-15, -1.800000000000001155, 0.000000000000000000 ) ) ;
#228 = COORDINATED_UNIVERSAL_TIME_OFFSET ( 1, 0, .AHEAD. ) ;
#229 = CARTESIAN_POINT ( 'NONE',  ( -2.560257515563240344E-15, -1.800000000000002931, 0.000000000000000000 ) ) ;
#230 = EDGE_LOOP ( 'NONE', ( #193, #92, #54, #74 ) ) ;
#231 = ORIENTED_EDGE ( 'NONE', *, *, #64, .F. ) ;
ENDSEC;
END-ISO-10303-21;
