ISO-10303-21;
HEADER;
FILE_DESCRIPTION (( 'STEP AP203' ),
    '1' );
FILE_NAME ('A_0040-012.STEP',
    '2024-07-11T10:34:32',
    ( '' ),
    ( '' ),
    'SwSTEP 2.0',
    'SolidWorks 2019',
    '' );
FILE_SCHEMA (( 'CONFIG_CONTROL_DESIGN' ));
ENDSEC;

DATA;
#1 = AXIS2_PLACEMENT_3D ( 'NONE', #64, #218, #307 ) ;
#2 = CARTESIAN_POINT ( 'NONE',  ( 7.000000000000000888, 8.572527594031474176E-16, 40.00000000000000000 ) ) ;
#3 = EDGE_CURVE ( 'NONE', #165, #179, #344, .T. ) ;
#4 = FACE_OUTER_BOUND ( 'NONE', #242, .T. ) ;
#5 = CARTESIAN_POINT ( 'NONE',  ( 0.000000000000000000, 0.000000000000000000, 40.00000000000000000 ) ) ;
#6 = EDGE_CURVE ( 'NONE', #165, #189, #199, .T. ) ;
#7 = FACE_OUTER_BOUND ( 'NONE', #18, .T. ) ;
#8 = CIRCLE ( 'NONE', #38, 6.499999999999995559 ) ;
#9 = DIRECTION ( 'NONE',  ( 1.000000000000000000, 0.000000000000000000, -0.000000000000000000 ) ) ;
#10 = ADVANCED_BREP_SHAPE_REPRESENTATION ( 'A_0040-012', ( #256, #313 ), #117 ) ;
#11 = VECTOR ( 'NONE', #37, 1000.000000000000000 ) ;
#12 = PERSON_AND_ORGANIZATION_ROLE ( 'creator' ) ;
#13 = EDGE_CURVE ( 'NONE', #179, #315, #317, .T. ) ;
#14 = UNCERTAINTY_MEASURE_WITH_UNIT (LENGTH_MEASURE( 1.000000000000000082E-05 ), #295, 'distance_accuracy_value', 'NONE');
#15 = AXIS2_PLACEMENT_3D ( 'NONE', #222, #332, #272 ) ;
#16 = DIRECTION ( 'NONE',  ( 1.000000000000000000, 0.000000000000000000, 0.000000000000000000 ) ) ;
#17 = AXIS2_PLACEMENT_3D ( 'NONE', #106, #241, #81 ) ;
#18 = EDGE_LOOP ( 'NONE', ( #82, #52, #208, #187 ) ) ;
#19 = DIRECTION ( 'NONE',  ( 0.000000000000000000, 0.000000000000000000, 1.000000000000000000 ) ) ;
#20 = COORDINATED_UNIVERSAL_TIME_OFFSET ( 1, 0, .AHEAD. ) ;
#21 = APPROVAL_ROLE ( '' ) ;
#22 = VERTEX_POINT ( 'NONE', #240 ) ;
#23 = PLANE ( 'NONE',  #17 ) ;
#24 = ORIENTED_EDGE ( 'NONE', *, *, #203, .T. ) ;
#25 = CALENDAR_DATE ( 2024, 11, 7 ) ;
#26 = AXIS2_PLACEMENT_3D ( 'NONE', #322, #296, #109 ) ;
#27 = CARTESIAN_POINT ( 'NONE',  ( -6.499999999999995559, 8.266365894244631375E-16, 0.000000000000000000 ) ) ;
#28 = ORIENTED_EDGE ( 'NONE', *, *, #227, .F. ) ;
#29 = APPROVAL ( #43, 'NEURÈENÝ' ) ;
#30 = DIRECTION ( 'NONE',  ( -0.000000000000000000, -0.000000000000000000, -1.000000000000000000 ) ) ;
#31 = AXIS2_PLACEMENT_3D ( 'NONE', #204, #74, #46 ) ;
#32 = CIRCLE ( 'NONE', #223, 7.000000000000000888 ) ;
#33 = CARTESIAN_POINT ( 'NONE',  ( 0.000000000000000000, 0.000000000000000000, 40.00000000000000000 ) ) ;
#34 = CARTESIAN_POINT ( 'NONE',  ( 0.000000000000000000, 0.000000000000000000, 40.00000000000000000 ) ) ;
#35 = EDGE_CURVE ( 'NONE', #315, #179, #157, .T. ) ;
#36 = LINE ( 'NONE', #269, #11 ) ;
#37 = DIRECTION ( 'NONE',  ( 0.7071067811865444641, 8.659560562354895880E-17, -0.7071067811865505703 ) ) ;
#38 = AXIS2_PLACEMENT_3D ( 'NONE', #119, #331, #304 ) ;
#39 = DIRECTION ( 'NONE',  ( 0.000000000000000000, 0.000000000000000000, 1.000000000000000000 ) ) ;
#40 = ADVANCED_FACE ( 'NONE', ( #110, #54 ), #162, .F. ) ;
#41 = ORIENTED_EDGE ( 'NONE', *, *, #161, .F. ) ;
#42 = CALENDAR_DATE ( 2024, 11, 7 ) ;
#43 = APPROVAL_STATUS ( 'not_yet_approved' ) ;
#44 = PERSON_AND_ORGANIZATION ( #170, #250 ) ;
#45 = EDGE_CURVE ( 'NONE', #181, #56, #247, .T. ) ;
#46 = DIRECTION ( 'NONE',  ( 1.000000000000000000, 0.000000000000000000, 0.000000000000000000 ) ) ;
#47 = LINE ( 'NONE', #156, #275 ) ;
#48 = AXIS2_PLACEMENT_3D ( 'NONE', #90, #30, #142 ) ;
#49 = AXIS2_PLACEMENT_3D ( 'NONE', #320, #19, #134 ) ;
#50 = ORIENTED_EDGE ( 'NONE', *, *, #255, .T. ) ;
#51 =( NAMED_UNIT ( * ) SI_UNIT ( $, .STERADIAN. ) SOLID_ANGLE_UNIT ( ) );
#52 = ORIENTED_EDGE ( 'NONE', *, *, #203, .F. ) ;
#53 = FACE_BOUND ( 'NONE', #346, .T. ) ;
#54 = FACE_BOUND ( 'NONE', #141, .T. ) ;
#55 = DIRECTION ( 'NONE',  ( 1.000000000000000000, 0.000000000000000000, 0.000000000000000000 ) ) ;
#56 = VERTEX_POINT ( 'NONE', #150 ) ;
#57 = APPROVAL_PERSON_ORGANIZATION ( #284, #137, #94 ) ;
#58 = ADVANCED_FACE ( 'NONE', ( #329 ), #217, .F. ) ;
#59 = CC_DESIGN_SECURITY_CLASSIFICATION ( #120, ( #298 ) ) ;
#60 = DIRECTION ( 'NONE',  ( -0.000000000000000000, -0.000000000000000000, -1.000000000000000000 ) ) ;
#61 = DIRECTION ( 'NONE',  ( -1.000000000000000000, 0.000000000000000000, 0.000000000000000000 ) ) ;
#62 = CLOSED_SHELL ( 'NONE', ( #306, #219, #100, #155, #288, #40, #215, #58, #118, #194 ) ) ;
#63 = DIRECTION ( 'NONE',  ( -0.000000000000000000, -0.000000000000000000, -1.000000000000000000 ) ) ;
#64 = CARTESIAN_POINT ( 'NONE',  ( 0.000000000000000000, 0.000000000000000000, 40.00000000000000000 ) ) ;
#65 = CYLINDRICAL_SURFACE ( 'NONE', #144, 6.250000000000000000 ) ;
#66 = AXIS2_PLACEMENT_3D ( 'NONE', #67, #89, #276 ) ;
#67 = CARTESIAN_POINT ( 'NONE',  ( 0.000000000000000000, 0.000000000000000000, 40.00000000000000000 ) ) ;
#68 = DESIGN_CONTEXT ( 'detailed design', #152, 'design' ) ;
#69 = PERSON_AND_ORGANIZATION ( #170, #250 ) ;
#70 = COORDINATED_UNIVERSAL_TIME_OFFSET ( 1, 0, .AHEAD. ) ;
#71 = EDGE_CURVE ( 'NONE', #290, #211, #36, .T. ) ;
#72 = PERSON_AND_ORGANIZATION ( #170, #250 ) ;
#73 = VECTOR ( 'NONE', #221, 999.9999999999998863 ) ;
#74 = DIRECTION ( 'NONE',  ( 0.000000000000000000, 0.000000000000000000, -1.000000000000000000 ) ) ;
#75 = APPROVAL_DATE_TIME ( #293, #137 ) ;
#76 = ORIENTED_EDGE ( 'NONE', *, *, #71, .T. ) ;
#77 = ORIENTED_EDGE ( 'NONE', *, *, #166, .T. ) ;
#78 = VERTEX_POINT ( 'NONE', #327 ) ;
#79 = ORIENTED_EDGE ( 'NONE', *, *, #252, .F. ) ;
#80 = ORIENTED_EDGE ( 'NONE', *, *, #166, .F. ) ;
#81 = DIRECTION ( 'NONE',  ( 1.000000000000000000, 0.000000000000000000, -0.000000000000000000 ) ) ;
#82 = ORIENTED_EDGE ( 'NONE', *, *, #330, .F. ) ;
#83 = FACE_OUTER_BOUND ( 'NONE', #99, .T. ) ;
#84 = ORIENTED_EDGE ( 'NONE', *, *, #282, .F. ) ;
#85 = CIRCLE ( 'NONE', #340, 6.500000000000005329 ) ;
#86 = CARTESIAN_POINT ( 'NONE',  ( 6.499999999999995559, 0.000000000000000000, 0.000000000000000000 ) ) ;
#87 = DIRECTION ( 'NONE',  ( -0.000000000000000000, -0.000000000000000000, -1.000000000000000000 ) ) ;
#88 = CARTESIAN_POINT ( 'NONE',  ( 0.000000000000000000, 0.000000000000000000, 0.5000000000000004441 ) ) ;
#89 = DIRECTION ( 'NONE',  ( 0.000000000000000000, 0.000000000000000000, -1.000000000000000000 ) ) ;
#90 = CARTESIAN_POINT ( 'NONE',  ( 0.000000000000000000, 0.000000000000000000, 0.000000000000000000 ) ) ;
#91 = CC_DESIGN_DATE_AND_TIME_ASSIGNMENT ( #202, #263, ( #338 ) ) ;
#92 =( NAMED_UNIT ( * ) PLANE_ANGLE_UNIT ( ) SI_UNIT ( $, .RADIAN. ) );
#93 = EDGE_CURVE ( 'NONE', #211, #56, #305, .T. ) ;
#94 = APPROVAL_ROLE ( '' ) ;
#95 = CALENDAR_DATE ( 2024, 11, 7 ) ;
#96 = LOCAL_TIME ( 12, 34, 32.00000000000000000, #153 ) ;
#97 = CARTESIAN_POINT ( 'NONE',  ( 0.000000000000000000, 0.000000000000000000, 39.50000000000000000 ) ) ;
#98 = LOCAL_TIME ( 12, 34, 32.00000000000000000, #20 ) ;
#99 = EDGE_LOOP ( 'NONE', ( #207, #133 ) ) ;
#100 = ADVANCED_FACE ( 'NONE', ( #113 ), #65, .F. ) ;
#101 = ORIENTED_EDGE ( 'NONE', *, *, #35, .T. ) ;
#102 = ORIENTED_EDGE ( 'NONE', *, *, #3, .T. ) ;
#103 = VECTOR ( 'NONE', #168, 999.9999999999998863 ) ;
#104 = EDGE_LOOP ( 'NONE', ( #325, #160, #264, #184 ) ) ;
#105 = APPROVAL_ROLE ( '' ) ;
#106 = CARTESIAN_POINT ( 'NONE',  ( 0.000000000000000000, 0.000000000000000000, 40.00000000000000000 ) ) ;
#107 = EDGE_CURVE ( 'NONE', #189, #315, #148, .T. ) ;
#108 = ORIENTED_EDGE ( 'NONE', *, *, #252, .T. ) ;
#109 = DIRECTION ( 'NONE',  ( -1.000000000000000000, 0.000000000000000000, 0.000000000000000000 ) ) ;
#110 = FACE_OUTER_BOUND ( 'NONE', #342, .T. ) ;
#111 = PRODUCT ( 'A_0040-012', 'A_0040-012', '', ( #334 ) ) ;
#112 = CIRCLE ( 'NONE', #15, 6.500000000000005329 ) ;
#113 = FACE_OUTER_BOUND ( 'NONE', #286, .T. ) ;
#114 = DIRECTION ( 'NONE',  ( -1.000000000000000000, 0.000000000000000000, 0.000000000000000000 ) ) ;
#115 = DIRECTION ( 'NONE',  ( -0.000000000000000000, -0.000000000000000000, -1.000000000000000000 ) ) ;
#116 = CARTESIAN_POINT ( 'NONE',  ( 6.250000000000000000, 7.654042494670957606E-16, 40.00000000000000000 ) ) ;
#117 =( GEOMETRIC_REPRESENTATION_CONTEXT ( 3 ) GLOBAL_UNCERTAINTY_ASSIGNED_CONTEXT ( ( #14 ) ) GLOBAL_UNIT_ASSIGNED_CONTEXT ( ( #295, #92, #51 ) ) REPRESENTATION_CONTEXT ( 'NONE', 'WORKASPACE' ) );
#118 = ADVANCED_FACE ( 'NONE', ( #7 ), #229, .T. ) ;
#119 = CARTESIAN_POINT ( 'NONE',  ( 0.000000000000000000, 0.000000000000000000, 0.000000000000000000 ) ) ;
#120 = SECURITY_CLASSIFICATION ( '', '', #281 ) ;
#121 = DIRECTION ( 'NONE',  ( -0.000000000000000000, -0.000000000000000000, -1.000000000000000000 ) ) ;
#122 = AXIS2_PLACEMENT_3D ( 'NONE', #213, #348, #299 ) ;
#123 = PERSON_AND_ORGANIZATION ( #170, #250 ) ;
#124 = PERSON_AND_ORGANIZATION ( #170, #250 ) ;
#125 = PERSON_AND_ORGANIZATION_ROLE ( 'classification_officer' ) ;
#126 = CONICAL_SURFACE ( 'NONE', #143, 7.000000000000000888, 0.7853981633974536081 ) ;
#127 = CC_DESIGN_APPROVAL ( #29, ( #298 ) ) ;
#128 = ORIENTED_EDGE ( 'NONE', *, *, #227, .T. ) ;
#129 = CC_DESIGN_PERSON_AND_ORGANIZATION_ASSIGNMENT ( #124, #12, ( #298 ) ) ;
#130 = CARTESIAN_POINT ( 'NONE',  ( 0.000000000000000000, 0.000000000000000000, 40.00000000000000000 ) ) ;
#131 = CARTESIAN_POINT ( 'NONE',  ( 0.000000000000000000, 0.000000000000000000, 0.000000000000000000 ) ) ;
#132 = CC_DESIGN_PERSON_AND_ORGANIZATION_ASSIGNMENT ( #123, #125, ( #120 ) ) ;
#133 = ORIENTED_EDGE ( 'NONE', *, *, #191, .T. ) ;
#134 = DIRECTION ( 'NONE',  ( 1.000000000000000000, 0.000000000000000000, 0.000000000000000000 ) ) ;
#135 = ORIENTED_EDGE ( 'NONE', *, *, #13, .F. ) ;
#136 = APPLICATION_CONTEXT ( 'configuration controlled 3d designs of mechanical parts and assemblies' ) ;
#137 = APPROVAL ( #205, 'NEURÈENÝ' ) ;
#138 = CARTESIAN_POINT ( 'NONE',  ( 6.500000000000005329, 8.266365894244638278E-16, 40.00000000000000000 ) ) ;
#139 = ORIENTED_EDGE ( 'NONE', *, *, #6, .F. ) ;
#140 = LINE ( 'NONE', #273, #73 ) ;
#141 = EDGE_LOOP ( 'NONE', ( #266, #101 ) ) ;
#142 = DIRECTION ( 'NONE',  ( 1.000000000000000000, 0.000000000000000000, 0.000000000000000000 ) ) ;
#143 = AXIS2_PLACEMENT_3D ( 'NONE', #193, #301, #285 ) ;
#144 = AXIS2_PLACEMENT_3D ( 'NONE', #171, #220, #147 ) ;
#145 = DIRECTION ( 'NONE',  ( -0.000000000000000000, -0.000000000000000000, -1.000000000000000000 ) ) ;
#146 = APPROVAL ( #183, 'NEURÈENÝ' ) ;
#147 = DIRECTION ( 'NONE',  ( -1.000000000000000000, 0.000000000000000000, 0.000000000000000000 ) ) ;
#148 = LINE ( 'NONE', #246, #336 ) ;
#149 = CC_DESIGN_PERSON_AND_ORGANIZATION_ASSIGNMENT ( #226, #201, ( #111 ) ) ;
#150 = CARTESIAN_POINT ( 'NONE',  ( 7.000000000000000888, 8.572527594031474176E-16, 0.5000000000000004441 ) ) ;
#151 = CALENDAR_DATE ( 2024, 11, 7 ) ;
#152 = APPLICATION_CONTEXT ( 'configuration controlled 3d designs of mechanical parts and assemblies' ) ;
#153 = COORDINATED_UNIVERSAL_TIME_OFFSET ( 1, 0, .AHEAD. ) ;
#154 = CARTESIAN_POINT ( 'NONE',  ( 0.000000000000000000, 0.000000000000000000, 0.5000000000000004441 ) ) ;
#155 = ADVANCED_FACE ( 'NONE', ( #4 ), #248, .T. ) ;
#156 = CARTESIAN_POINT ( 'NONE',  ( -6.500000000000005329, 0.000000000000000000, 40.00000000000000000 ) ) ;
#157 = CIRCLE ( 'NONE', #49, 6.250000000000000000 ) ;
#158 = ORIENTED_EDGE ( 'NONE', *, *, #255, .F. ) ;
#159 = PERSON_AND_ORGANIZATION_ROLE ( 'creator' ) ;
#160 = ORIENTED_EDGE ( 'NONE', *, *, #330, .T. ) ;
#161 = EDGE_CURVE ( 'NONE', #22, #78, #195, .T. ) ;
#162 = PLANE ( 'NONE',  #245 ) ;
#163 = CARTESIAN_POINT ( 'NONE',  ( 6.250000000000000000, 7.654042494670957606E-16, 0.000000000000000000 ) ) ;
#164 = ORIENTED_EDGE ( 'NONE', *, *, #161, .T. ) ;
#165 = VERTEX_POINT ( 'NONE', #303 ) ;
#166 = EDGE_CURVE ( 'NONE', #189, #165, #228, .T. ) ;
#167 = FACE_OUTER_BOUND ( 'NONE', #349, .T. ) ;
#168 = DIRECTION ( 'NONE',  ( 0.7071067811865512365, 0.000000000000000000, 0.7071067811865439090 ) ) ;
#169 = CARTESIAN_POINT ( 'NONE',  ( 7.000000000000000888, 0.000000000000000000, 0.5000000000000004441 ) ) ;
#170 = PERSON ( 'NEURÈENÝ', 'NEURÈENÝ', 'NEURÈENÝ', ('NEURÈENÝ'), ('NEURÈENÝ'), ('NEURÈENÝ') ) ;
#171 = CARTESIAN_POINT ( 'NONE',  ( 0.000000000000000000, 0.000000000000000000, 40.00000000000000000 ) ) ;
#172 = VECTOR ( 'NONE', #87, 1000.000000000000000 ) ;
#173 = CC_DESIGN_APPROVAL ( #137, ( #338 ) ) ;
#174 = PERSON_AND_ORGANIZATION_ROLE ( 'design_supplier' ) ;
#175 = DATE_AND_TIME ( #151, #279 ) ;
#176 = DATE_TIME_ROLE ( 'classification_date' ) ;
#177 = PERSON_AND_ORGANIZATION ( #170, #250 ) ;
#178 = DIRECTION ( 'NONE',  ( 1.000000000000000000, 0.000000000000000000, 0.000000000000000000 ) ) ;
#179 = VERTEX_POINT ( 'NONE', #274 ) ;
#180 = CIRCLE ( 'NONE', #277, 7.000000000000000888 ) ;
#181 = VERTEX_POINT ( 'NONE', #86 ) ;
#182 = EDGE_LOOP ( 'NONE', ( #214, #76, #79, #158 ) ) ;
#183 = APPROVAL_STATUS ( 'not_yet_approved' ) ;
#184 = ORIENTED_EDGE ( 'NONE', *, *, #45, .F. ) ;
#185 = APPROVAL_DATE_TIME ( #321, #146 ) ;
#186 = FACE_OUTER_BOUND ( 'NONE', #182, .T. ) ;
#187 = ORIENTED_EDGE ( 'NONE', *, *, #267, .F. ) ;
#188 = CONICAL_SURFACE ( 'NONE', #26, 6.500000000000005329, 0.7853981633974439491 ) ;
#189 = VERTEX_POINT ( 'NONE', #116 ) ;
#190 = SHAPE_DEFINITION_REPRESENTATION ( #234, #10 ) ;
#191 = EDGE_CURVE ( 'NONE', #290, #297, #112, .T. ) ;
#192 = CARTESIAN_POINT ( 'NONE',  ( 7.000000000000000888, 8.572527594031474176E-16, 39.50000000000000000 ) ) ;
#193 = CARTESIAN_POINT ( 'NONE',  ( 0.000000000000000000, 0.000000000000000000, 0.5000000000000004441 ) ) ;
#194 = ADVANCED_FACE ( 'NONE', ( #167 ), #308, .T. ) ;
#195 = LINE ( 'NONE', #333, #172 ) ;
#196 = DIRECTION ( 'NONE',  ( 0.000000000000000000, 0.000000000000000000, 1.000000000000000000 ) ) ;
#197 = DIRECTION ( 'NONE',  ( -0.000000000000000000, -0.000000000000000000, -1.000000000000000000 ) ) ;
#198 = CIRCLE ( 'NONE', #48, 6.499999999999995559 ) ;
#199 = CIRCLE ( 'NONE', #122, 6.250000000000000000 ) ;
#200 = EDGE_LOOP ( 'NONE', ( #316, #77, #102, #265 ) ) ;
#201 = PERSON_AND_ORGANIZATION_ROLE ( 'design_owner' ) ;
#202 = DATE_AND_TIME ( #309, #96 ) ;
#203 = EDGE_CURVE ( 'NONE', #181, #319, #198, .T. ) ;
#204 = CARTESIAN_POINT ( 'NONE',  ( 0.000000000000000000, 0.000000000000000000, 39.50000000000000000 ) ) ;
#205 = APPROVAL_STATUS ( 'not_yet_approved' ) ;
#206 = DIRECTION ( 'NONE',  ( 1.000000000000000000, 0.000000000000000000, 0.000000000000000000 ) ) ;
#207 = ORIENTED_EDGE ( 'NONE', *, *, #282, .T. ) ;
#208 = ORIENTED_EDGE ( 'NONE', *, *, #45, .T. ) ;
#209 = ORIENTED_EDGE ( 'NONE', *, *, #6, .T. ) ;
#210 = AXIS2_PLACEMENT_3D ( 'NONE', #131, #323, #243 ) ;
#211 = VERTEX_POINT ( 'NONE', #192 ) ;
#212 = CARTESIAN_POINT ( 'NONE',  ( -6.500000000000005329, 0.000000000000000000, 40.00000000000000000 ) ) ;
#213 = CARTESIAN_POINT ( 'NONE',  ( 0.000000000000000000, 0.000000000000000000, 40.00000000000000000 ) ) ;
#214 = ORIENTED_EDGE ( 'NONE', *, *, #191, .F. ) ;
#215 = ADVANCED_FACE ( 'NONE', ( #270 ), #300, .T. ) ;
#216 = AXIS2_PLACEMENT_3D ( 'NONE', #33, #145, #114 ) ;
#217 = CYLINDRICAL_SURFACE ( 'NONE', #254, 6.250000000000000000 ) ;
#218 = DIRECTION ( 'NONE',  ( 0.000000000000000000, 0.000000000000000000, 1.000000000000000000 ) ) ;
#219 = ADVANCED_FACE ( 'NONE', ( #328 ), #126, .T. ) ;
#220 = DIRECTION ( 'NONE',  ( -0.000000000000000000, -0.000000000000000000, -1.000000000000000000 ) ) ;
#221 = DIRECTION ( 'NONE',  ( -0.7071067811865512365, 8.659560562354979697E-17, 0.7071067811865439090 ) ) ;
#222 = CARTESIAN_POINT ( 'NONE',  ( 0.000000000000000000, 0.000000000000000000, 40.00000000000000000 ) ) ;
#223 = AXIS2_PLACEMENT_3D ( 'NONE', #154, #261, #16 ) ;
#224 = APPROVAL_PERSON_ORGANIZATION ( #44, #146, #105 ) ;
#225 = DIRECTION ( 'NONE',  ( 1.000000000000000000, 0.000000000000000000, 0.000000000000000000 ) ) ;
#226 = PERSON_AND_ORGANIZATION ( #170, #250 ) ;
#227 = EDGE_CURVE ( 'NONE', #211, #22, #180, .T. ) ;
#228 = CIRCLE ( 'NONE', #1, 6.250000000000000000 ) ;
#229 = CONICAL_SURFACE ( 'NONE', #259, 7.000000000000000888, 0.7853981633974536081 ) ;
#230 = DATE_AND_TIME ( #42, #314 ) ;
#231 = COORDINATED_UNIVERSAL_TIME_OFFSET ( 1, 0, .AHEAD. ) ;
#232 = EDGE_CURVE ( 'NONE', #56, #78, #324, .T. ) ;
#233 = DIRECTION ( 'NONE',  ( 1.000000000000000000, 0.000000000000000000, 0.000000000000000000 ) ) ;
#234 = PRODUCT_DEFINITION_SHAPE ( 'NONE', 'NONE',  #338 ) ;
#235 = AXIS2_PLACEMENT_3D ( 'NONE', #34, #115, #61 ) ;
#236 = APPROVAL_PERSON_ORGANIZATION ( #69, #29, #21 ) ;
#237 = ORIENTED_EDGE ( 'NONE', *, *, #71, .F. ) ;
#238 = ORIENTED_EDGE ( 'NONE', *, *, #267, .T. ) ;
#239 = CARTESIAN_POINT ( 'NONE',  ( 0.000000000000000000, 0.000000000000000000, 0.000000000000000000 ) ) ;
#240 = CARTESIAN_POINT ( 'NONE',  ( -7.000000000000000888, 0.000000000000000000, 39.50000000000000000 ) ) ;
#241 = DIRECTION ( 'NONE',  ( 0.000000000000000000, 0.000000000000000000, 1.000000000000000000 ) ) ;
#242 = EDGE_LOOP ( 'NONE', ( #108, #318, #268, #41 ) ) ;
#243 = DIRECTION ( 'NONE',  ( 1.000000000000000000, 0.000000000000000000, 0.000000000000000000 ) ) ;
#244 = DIRECTION ( 'NONE',  ( -1.000000000000000000, 0.000000000000000000, 0.000000000000000000 ) ) ;
#245 = AXIS2_PLACEMENT_3D ( 'NONE', #239, #196, #9 ) ;
#246 = CARTESIAN_POINT ( 'NONE',  ( 6.250000000000000000, 7.654042494670957606E-16, 40.00000000000000000 ) ) ;
#247 = LINE ( 'NONE', #169, #103 ) ;
#248 = CYLINDRICAL_SURFACE ( 'NONE', #235, 7.000000000000000888 ) ;
#249 = DIRECTION ( 'NONE',  ( -0.000000000000000000, -0.000000000000000000, 1.000000000000000000 ) ) ;
#250 = ORGANIZATION ( 'NEURÈENÝ', 'NEURÈENÝ', '' ) ;
#251 = CC_DESIGN_APPROVAL ( #146, ( #120 ) ) ;
#252 = EDGE_CURVE ( 'NONE', #22, #211, #335, .T. ) ;
#253 = CARTESIAN_POINT ( 'NONE',  ( 0.000000000000000000, 0.000000000000000000, 0.000000000000000000 ) ) ;
#254 = AXIS2_PLACEMENT_3D ( 'NONE', #5, #197, #244 ) ;
#255 = EDGE_CURVE ( 'NONE', #297, #22, #47, .T. ) ;
#256 = MANIFOLD_SOLID_BREP ( 'Zkosení1', #62 ) ;
#257 = APPROVAL_DATE_TIME ( #175, #29 ) ;
#258 = DIRECTION ( 'NONE',  ( 0.000000000000000000, 0.000000000000000000, -1.000000000000000000 ) ) ;
#259 = AXIS2_PLACEMENT_3D ( 'NONE', #88, #249, #225 ) ;
#260 = ORIENTED_EDGE ( 'NONE', *, *, #345, .T. ) ;
#261 = DIRECTION ( 'NONE',  ( -0.000000000000000000, -0.000000000000000000, 1.000000000000000000 ) ) ;
#262 = CARTESIAN_POINT ( 'NONE',  ( -6.250000000000000000, 0.000000000000000000, 40.00000000000000000 ) ) ;
#263 = DATE_TIME_ROLE ( 'creation_date' ) ;
#264 = ORIENTED_EDGE ( 'NONE', *, *, #232, .F. ) ;
#265 = ORIENTED_EDGE ( 'NONE', *, *, #35, .F. ) ;
#266 = ORIENTED_EDGE ( 'NONE', *, *, #13, .T. ) ;
#267 = EDGE_CURVE ( 'NONE', #78, #56, #32, .T. ) ;
#268 = ORIENTED_EDGE ( 'NONE', *, *, #232, .T. ) ;
#269 = CARTESIAN_POINT ( 'NONE',  ( 6.500000000000005329, 7.960204194457802379E-16, 40.00000000000000000 ) ) ;
#270 = FACE_OUTER_BOUND ( 'NONE', #343, .T. ) ;
#271 = VECTOR ( 'NONE', #60, 1000.000000000000000 ) ;
#272 = DIRECTION ( 'NONE',  ( 1.000000000000000000, 0.000000000000000000, 0.000000000000000000 ) ) ;
#273 = CARTESIAN_POINT ( 'NONE',  ( -7.000000000000000888, 8.572527594031474176E-16, 0.5000000000000004441 ) ) ;
#274 = CARTESIAN_POINT ( 'NONE',  ( -6.250000000000000000, 0.000000000000000000, 0.000000000000000000 ) ) ;
#275 = VECTOR ( 'NONE', #312, 1000.000000000000000 ) ;
#276 = DIRECTION ( 'NONE',  ( -1.000000000000000000, 0.000000000000000000, 0.000000000000000000 ) ) ;
#277 = AXIS2_PLACEMENT_3D ( 'NONE', #97, #258, #178 ) ;
#278 = CC_DESIGN_PERSON_AND_ORGANIZATION_ASSIGNMENT ( #177, #159, ( #338 ) ) ;
#279 = LOCAL_TIME ( 12, 34, 32.00000000000000000, #311 ) ;
#280 = CC_DESIGN_PERSON_AND_ORGANIZATION_ASSIGNMENT ( #72, #174, ( #298 ) ) ;
#281 = SECURITY_CLASSIFICATION_LEVEL ( 'unclassified' ) ;
#282 = EDGE_CURVE ( 'NONE', #297, #290, #85, .T. ) ;
#283 = APPLICATION_PROTOCOL_DEFINITION ( 'international standard', 'config_control_design', 1994, #136 ) ;
#284 = PERSON_AND_ORGANIZATION ( #170, #250 ) ;
#285 = DIRECTION ( 'NONE',  ( 1.000000000000000000, 0.000000000000000000, 0.000000000000000000 ) ) ;
#286 = EDGE_LOOP ( 'NONE', ( #209, #294, #135, #291 ) ) ;
#287 = CARTESIAN_POINT ( 'NONE',  ( 0.000000000000000000, 0.000000000000000000, 0.5000000000000004441 ) ) ;
#288 = ADVANCED_FACE ( 'NONE', ( #83, #53 ), #23, .T. ) ;
#289 = AXIS2_PLACEMENT_3D ( 'NONE', #287, #339, #206 ) ;
#290 = VERTEX_POINT ( 'NONE', #138 ) ;
#291 = ORIENTED_EDGE ( 'NONE', *, *, #3, .F. ) ;
#292 = CC_DESIGN_DATE_AND_TIME_ASSIGNMENT ( #230, #176, ( #120 ) ) ;
#293 = DATE_AND_TIME ( #95, #326 ) ;
#294 = ORIENTED_EDGE ( 'NONE', *, *, #107, .T. ) ;
#295 =( LENGTH_UNIT ( ) NAMED_UNIT ( * ) SI_UNIT ( .MILLI., .METRE. ) );
#296 = DIRECTION ( 'NONE',  ( 0.000000000000000000, 0.000000000000000000, -1.000000000000000000 ) ) ;
#297 = VERTEX_POINT ( 'NONE', #212 ) ;
#298 = PRODUCT_DEFINITION_FORMATION_WITH_SPECIFIED_SOURCE ( 'LIBOVOLNÝ', '', #111, .NOT_KNOWN. ) ;
#299 = DIRECTION ( 'NONE',  ( 1.000000000000000000, 0.000000000000000000, 0.000000000000000000 ) ) ;
#300 = CYLINDRICAL_SURFACE ( 'NONE', #216, 7.000000000000000888 ) ;
#301 = DIRECTION ( 'NONE',  ( -0.000000000000000000, -0.000000000000000000, 1.000000000000000000 ) ) ;
#302 = VECTOR ( 'NONE', #121, 1000.000000000000000 ) ;
#303 = CARTESIAN_POINT ( 'NONE',  ( -6.250000000000000000, 0.000000000000000000, 40.00000000000000000 ) ) ;
#304 = DIRECTION ( 'NONE',  ( 1.000000000000000000, 0.000000000000000000, 0.000000000000000000 ) ) ;
#305 = LINE ( 'NONE', #2, #302 ) ;
#306 = ADVANCED_FACE ( 'NONE', ( #186 ), #188, .T. ) ;
#307 = DIRECTION ( 'NONE',  ( 1.000000000000000000, 0.000000000000000000, 0.000000000000000000 ) ) ;
#308 = CONICAL_SURFACE ( 'NONE', #66, 6.500000000000005329, 0.7853981633974439491 ) ;
#309 = CALENDAR_DATE ( 2024, 11, 7 ) ;
#310 = ORIENTED_EDGE ( 'NONE', *, *, #93, .F. ) ;
#311 = COORDINATED_UNIVERSAL_TIME_OFFSET ( 1, 0, .AHEAD. ) ;
#312 = DIRECTION ( 'NONE',  ( -0.7071067811865444641, 0.000000000000000000, -0.7071067811865505703 ) ) ;
#313 = AXIS2_PLACEMENT_3D ( 'NONE', #253, #39, #233 ) ;
#314 = LOCAL_TIME ( 12, 34, 32.00000000000000000, #231 ) ;
#315 = VERTEX_POINT ( 'NONE', #163 ) ;
#316 = ORIENTED_EDGE ( 'NONE', *, *, #107, .F. ) ;
#317 = CIRCLE ( 'NONE', #210, 6.250000000000000000 ) ;
#318 = ORIENTED_EDGE ( 'NONE', *, *, #93, .T. ) ;
#319 = VERTEX_POINT ( 'NONE', #27 ) ;
#320 = CARTESIAN_POINT ( 'NONE',  ( 0.000000000000000000, 0.000000000000000000, 0.000000000000000000 ) ) ;
#321 = DATE_AND_TIME ( #25, #98 ) ;
#322 = CARTESIAN_POINT ( 'NONE',  ( 0.000000000000000000, 0.000000000000000000, 40.00000000000000000 ) ) ;
#323 = DIRECTION ( 'NONE',  ( 0.000000000000000000, 0.000000000000000000, 1.000000000000000000 ) ) ;
#324 = CIRCLE ( 'NONE', #289, 7.000000000000000888 ) ;
#325 = ORIENTED_EDGE ( 'NONE', *, *, #345, .F. ) ;
#326 = LOCAL_TIME ( 12, 34, 32.00000000000000000, #70 ) ;
#327 = CARTESIAN_POINT ( 'NONE',  ( -7.000000000000000888, 0.000000000000000000, 0.5000000000000004441 ) ) ;
#328 = FACE_OUTER_BOUND ( 'NONE', #104, .T. ) ;
#329 = FACE_OUTER_BOUND ( 'NONE', #200, .T. ) ;
#330 = EDGE_CURVE ( 'NONE', #319, #78, #140, .T. ) ;
#331 = DIRECTION ( 'NONE',  ( -0.000000000000000000, -0.000000000000000000, -1.000000000000000000 ) ) ;
#332 = DIRECTION ( 'NONE',  ( 0.000000000000000000, 0.000000000000000000, 1.000000000000000000 ) ) ;
#333 = CARTESIAN_POINT ( 'NONE',  ( -7.000000000000000888, 0.000000000000000000, 40.00000000000000000 ) ) ;
#334 = MECHANICAL_CONTEXT ( 'NONE', #136, 'mechanical' ) ;
#335 = CIRCLE ( 'NONE', #31, 7.000000000000000888 ) ;
#336 = VECTOR ( 'NONE', #63, 1000.000000000000000 ) ;
#337 = APPLICATION_PROTOCOL_DEFINITION ( 'international standard', 'config_control_design', 1994, #152 ) ;
#338 = PRODUCT_DEFINITION ( 'NEZNÁMÝ', '', #298, #68 ) ;
#339 = DIRECTION ( 'NONE',  ( -0.000000000000000000, -0.000000000000000000, 1.000000000000000000 ) ) ;
#340 = AXIS2_PLACEMENT_3D ( 'NONE', #130, #347, #55 ) ;
#341 = PRODUCT_RELATED_PRODUCT_CATEGORY ( 'detail', '', ( #111 ) ) ;
#342 = EDGE_LOOP ( 'NONE', ( #24, #260 ) ) ;
#343 = EDGE_LOOP ( 'NONE', ( #310, #128, #164, #238 ) ) ;
#344 = LINE ( 'NONE', #262, #271 ) ;
#345 = EDGE_CURVE ( 'NONE', #319, #181, #8, .T. ) ;
#346 = EDGE_LOOP ( 'NONE', ( #139, #80 ) ) ;
#347 = DIRECTION ( 'NONE',  ( 0.000000000000000000, 0.000000000000000000, 1.000000000000000000 ) ) ;
#348 = DIRECTION ( 'NONE',  ( 0.000000000000000000, 0.000000000000000000, 1.000000000000000000 ) ) ;
#349 = EDGE_LOOP ( 'NONE', ( #237, #84, #50, #28 ) ) ;
ENDSEC;
END-ISO-10303-21;
