ISO-10303-21;
HEADER;
FILE_DESCRIPTION (( 'STEP AP203' ),
    '1' );
FILE_NAME ('A10_0015-012-A.STEP',
    '2019-02-13T14:28:18',
    ( '' ),
    ( '' ),
    'SwSTEP 2.0',
    'SolidWorks 2018',
    '' );
FILE_SCHEMA (( 'CONFIG_CONTROL_DESIGN' ));
ENDSEC;

DATA;
#1 = CARTESIAN_POINT ( 'NONE',  ( 0.0000000000000000000, 0.0000000000000000000, 15.00000000000000000 ) ) ;
#2 = LINE ( 'NONE', #101, #54 ) ;
#3 = AXIS2_PLACEMENT_3D ( 'NONE', #63, #144, #298 ) ;
#4 = ORIENTED_EDGE ( 'NONE', *, *, #113, .F. ) ;
#5 = EDGE_CURVE ( 'NONE', #132, #79, #214, .T. ) ;
#6 = CARTESIAN_POINT ( 'NONE',  ( -6.649999999999999467, 8.143901214329898791E-16, 15.00000000000000000 ) ) ;
#7 = SECURITY_CLASSIFICATION_LEVEL ( 'unclassified' ) ;
#8 = PERSON_AND_ORGANIZATION ( #273, #98 ) ;
#9 = ORIENTED_EDGE ( 'NONE', *, *, #57, .T. ) ;
#10 = APPROVAL_STATUS ( 'not_yet_approved' ) ;
#11 = CARTESIAN_POINT ( 'NONE',  ( 0.0000000000000000000, 0.0000000000000000000, 1.000000000000007772 ) ) ;
#12 = APPLICATION_PROTOCOL_DEFINITION ( 'international standard', 'config_control_design', 1994, #212 ) ;
#13 = SECURITY_CLASSIFICATION ( '', '', #7 ) ;
#14 = DIRECTION ( 'NONE',  ( 0.0000000000000000000, 0.0000000000000000000, 1.000000000000000000 ) ) ;
#15 = EDGE_LOOP ( 'NONE', ( #248, #109 ) ) ;
#16 = COORDINATED_UNIVERSAL_TIME_OFFSET ( 1, 0, .AHEAD. ) ;
#17 = VERTEX_POINT ( 'NONE', #6 ) ;
#18 = EDGE_CURVE ( 'NONE', #148, #160, #370, .T. ) ;
#19 = ADVANCED_FACE ( 'NONE', ( #233 ), #135, .F. ) ;
#20 = PERSON_AND_ORGANIZATION ( #273, #98 ) ;
#21 = FACE_BOUND ( 'NONE', #318, .T. ) ;
#22 = EDGE_LOOP ( 'NONE', ( #39, #100, #154, #180 ) ) ;
#23 = DIRECTION ( 'NONE',  ( 0.0000000000000000000, 0.0000000000000000000, 1.000000000000000000 ) ) ;
#24 = EDGE_CURVE ( 'NONE', #338, #303, #67, .T. ) ;
#25 = VECTOR ( 'NONE', #265, 1000.000000000000000 ) ;
#26 = ORIENTED_EDGE ( 'NONE', *, *, #293, .F. ) ;
#27 = ORIENTED_EDGE ( 'NONE', *, *, #32, .T. ) ;
#28 = CARTESIAN_POINT ( 'NONE',  ( 0.0000000000000000000, 0.0000000000000000000, 1.000000000000007772 ) ) ;
#29 = CC_DESIGN_APPROVAL ( #375, ( #247 ) ) ;
#30 = FACE_OUTER_BOUND ( 'NONE', #82, .T. ) ;
#31 = PLANE ( 'NONE',  #107 ) ;
#32 = EDGE_CURVE ( 'NONE', #241, #148, #2, .T. ) ;
#33 = CARTESIAN_POINT ( 'NONE',  ( 6.149999999999997691, 0.0000000000000000000, 5.000000000000000888 ) ) ;
#34 = DIRECTION ( 'NONE',  ( 0.0000000000000000000, 0.0000000000000000000, 1.000000000000000000 ) ) ;
#35 = CARTESIAN_POINT ( 'NONE',  ( 7.500000000000000000, 0.0000000000000000000, 1.000000000000007772 ) ) ;
#36 = VECTOR ( 'NONE', #257, 1000.000000000000000 ) ;
#37 = DIRECTION ( 'NONE',  ( -0.7071067811865463515, 8.659560562354918067E-17, 0.7071067811865487940 ) ) ;
#38 = CC_DESIGN_DATE_AND_TIME_ASSIGNMENT ( #232, #244, ( #186 ) ) ;
#39 = ORIENTED_EDGE ( 'NONE', *, *, #227, .F. ) ;
#40 = CARTESIAN_POINT ( 'NONE',  ( -6.499999999999985789, 8.572527594031463329E-16, 0.0000000000000000000 ) ) ;
#41 = PERSON_AND_ORGANIZATION_ROLE ( 'creator' ) ;
#42 = CARTESIAN_POINT ( 'NONE',  ( 6.149999999999997691, 0.0000000000000000000, 14.49999999999999467 ) ) ;
#43 = DATE_TIME_ROLE ( 'classification_date' ) ;
#44 = APPROVAL_ROLE ( '' ) ;
#45 = PERSON_AND_ORGANIZATION ( #273, #98 ) ;
#46 = ADVANCED_FACE ( 'NONE', ( #313 ), #105, .T. ) ;
#47 = CIRCLE ( 'NONE', #324, 6.649999999999999467 ) ;
#48 = APPLICATION_CONTEXT ( 'configuration controlled 3d designs of mechanical parts and assemblies' ) ;
#49 = VECTOR ( 'NONE', #151, 1000.000000000000000 ) ;
#50 = VERTEX_POINT ( 'NONE', #40 ) ;
#51 = ADVANCED_FACE ( 'NONE', ( #147 ), #203, .T. ) ;
#52 = DIRECTION ( 'NONE',  ( 0.0000000000000000000, 0.0000000000000000000, 1.000000000000000000 ) ) ;
#53 = ADVANCED_FACE ( 'NONE', ( #178 ), #188, .T. ) ;
#54 = VECTOR ( 'NONE', #310, 1000.000000000000000 ) ;
#55 = CC_DESIGN_PERSON_AND_ORGANIZATION_ASSIGNMENT ( #192, #41, ( #186 ) ) ;
#56 = DIRECTION ( 'NONE',  ( -0.0000000000000000000, -0.0000000000000000000, -1.000000000000000000 ) ) ;
#57 = EDGE_CURVE ( 'NONE', #251, #50, #173, .T. ) ;
#58 = CARTESIAN_POINT ( 'NONE',  ( 0.0000000000000000000, 0.0000000000000000000, 15.00000000000000000 ) ) ;
#59 = VECTOR ( 'NONE', #274, 1000.000000000000000 ) ;
#60 = ORIENTED_EDGE ( 'NONE', *, *, #24, .F. ) ;
#61 = DIRECTION ( 'NONE',  ( -0.0000000000000000000, -0.0000000000000000000, -1.000000000000000000 ) ) ;
#62 = VECTOR ( 'NONE', #125, 1000.000000000000000 ) ;
#63 = CARTESIAN_POINT ( 'NONE',  ( 0.0000000000000000000, 0.0000000000000000000, 5.000000000000000888 ) ) ;
#64 = DIRECTION ( 'NONE',  ( -0.0000000000000000000, -0.0000000000000000000, 1.000000000000000000 ) ) ;
#65 = CALENDAR_DATE ( 2019, 13, 2 ) ;
#66 = AXIS2_PLACEMENT_3D ( 'NONE', #319, #52, #164 ) ;
#67 = LINE ( 'NONE', #179, #62 ) ;
#68 = VERTEX_POINT ( 'NONE', #364 ) ;
#69 = CARTESIAN_POINT ( 'NONE',  ( -6.149999999999997691, 7.531577814756219106E-16, 5.000000000000000888 ) ) ;
#70 = DIRECTION ( 'NONE',  ( 1.000000000000000000, 0.0000000000000000000, 0.0000000000000000000 ) ) ;
#71 = APPROVAL_PERSON_ORGANIZATION ( #146, #279, #243 ) ;
#72 = CARTESIAN_POINT ( 'NONE',  ( -3.354379299900439064E-15, 0.0000000000000000000, 1.304707192980503638 ) ) ;
#73 = ORIENTED_EDGE ( 'NONE', *, *, #57, .F. ) ;
#74 = CC_DESIGN_PERSON_AND_ORGANIZATION_ASSIGNMENT ( #45, #104, ( #13 ) ) ;
#75 = PERSON_AND_ORGANIZATION_ROLE ( 'design_supplier' ) ;
#76 = CONICAL_SURFACE ( 'NONE', #260, 6.149999999999997691, 0.7853981633974466137 ) ;
#77 = EDGE_CURVE ( 'NONE', #303, #68, #131, .T. ) ;
#78 = ORIENTED_EDGE ( 'NONE', *, *, #334, .F. ) ;
#79 = VERTEX_POINT ( 'NONE', #348 ) ;
#80 = ADVANCED_FACE ( 'NONE', ( #21, #224 ), #136, .T. ) ;
#81 = CIRCLE ( 'NONE', #320, 7.500000000000000000 ) ;
#82 = EDGE_LOOP ( 'NONE', ( #4, #143, #347, #115 ) ) ;
#83 = AXIS2_PLACEMENT_3D ( 'NONE', #238, #14, #184 ) ;
#84 = CARTESIAN_POINT ( 'NONE',  ( 6.149999999999997691, 0.0000000000000000000, 14.49999999999999467 ) ) ;
#85 = EDGE_LOOP ( 'NONE', ( #292, #181, #189 ) ) ;
#86 = CARTESIAN_POINT ( 'NONE',  ( 6.149999999999997691, 0.0000000000000000000, 5.000000000000000888 ) ) ;
#87 = CARTESIAN_POINT ( 'NONE',  ( 7.500000000000000000, 9.184850993605147944E-16, 1.000000000000007772 ) ) ;
#88 = DIRECTION ( 'NONE',  ( 1.000000000000000000, 0.0000000000000000000, 0.0000000000000000000 ) ) ;
#89 = AXIS2_PLACEMENT_3D ( 'NONE', #226, #56, #288 ) ;
#90 = LOCAL_TIME ( 15, 28, 18.00000000000000000, #103 ) ;
#91 = CONICAL_SURFACE ( 'NONE', #3, 6.149999999999997691, 1.029744258676653867 ) ;
#92 = DIRECTION ( 'NONE',  ( 0.7071067811865496822, 0.0000000000000000000, 0.7071067811865453523 ) ) ;
#93 = ORIENTED_EDGE ( 'NONE', *, *, #270, .F. ) ;
#94 = CARTESIAN_POINT ( 'NONE',  ( 0.0000000000000000000, 0.0000000000000000000, 14.49999999999999467 ) ) ;
#95 = DIRECTION ( 'NONE',  ( -0.0000000000000000000, -0.0000000000000000000, -1.000000000000000000 ) ) ;
#96 = PERSON_AND_ORGANIZATION_ROLE ( 'design_owner' ) ;
#97 = CC_DESIGN_PERSON_AND_ORGANIZATION_ASSIGNMENT ( #158, #75, ( #247 ) ) ;
#98 = ORGANIZATION ( 'NEURÈENÝ', 'NEURÈENÝ', '' ) ;
#99 = DIRECTION ( 'NONE',  ( -1.000000000000000000, 0.0000000000000000000, 0.0000000000000000000 ) ) ;
#100 = ORIENTED_EDGE ( 'NONE', *, *, #372, .T. ) ;
#101 = CARTESIAN_POINT ( 'NONE',  ( 6.149999999999997691, 0.0000000000000000000, 15.00000000000000000 ) ) ;
#102 = CARTESIAN_POINT ( 'NONE',  ( 7.500000000000000000, 9.184850993605147944E-16, 15.00000000000000000 ) ) ;
#103 = COORDINATED_UNIVERSAL_TIME_OFFSET ( 1, 0, .AHEAD. ) ;
#104 = PERSON_AND_ORGANIZATION_ROLE ( 'classification_officer' ) ;
#105 = CYLINDRICAL_SURFACE ( 'NONE', #156, 7.500000000000000000 ) ;
#106 = EDGE_LOOP ( 'NONE', ( #26, #323, #230, #326 ) ) ;
#107 = AXIS2_PLACEMENT_3D ( 'NONE', #306, #231, #311 ) ;
#108 = LINE ( 'NONE', #145, #25 ) ;
#109 = ORIENTED_EDGE ( 'NONE', *, *, #293, .T. ) ;
#110 = APPROVAL_DATE_TIME ( #342, #279 ) ;
#111 = CIRCLE ( 'NONE', #169, 7.500000000000000000 ) ;
#112 = DIRECTION ( 'NONE',  ( -0.0000000000000000000, -0.0000000000000000000, 1.000000000000000000 ) ) ;
#113 = EDGE_CURVE ( 'NONE', #303, #241, #330, .T. ) ;
#114 = CIRCLE ( 'NONE', #129, 7.500000000000000000 ) ;
#115 = ORIENTED_EDGE ( 'NONE', *, *, #32, .F. ) ;
#116 = DIRECTION ( 'NONE',  ( 1.000000000000000000, 0.0000000000000000000, 0.0000000000000000000 ) ) ;
#117 = CC_DESIGN_PERSON_AND_ORGANIZATION_ASSIGNMENT ( #245, #282, ( #247 ) ) ;
#118 = EDGE_CURVE ( 'NONE', #50, #251, #255, .T. ) ;
#119 = CALENDAR_DATE ( 2019, 13, 2 ) ;
#120 = DIRECTION ( 'NONE',  ( 1.000000000000000000, 0.0000000000000000000, 0.0000000000000000000 ) ) ;
#121 =( GEOMETRIC_REPRESENTATION_CONTEXT ( 3 ) GLOBAL_UNCERTAINTY_ASSIGNED_CONTEXT ( ( #354 ) ) GLOBAL_UNIT_ASSIGNED_CONTEXT ( ( #182, #157, #340 ) ) REPRESENTATION_CONTEXT ( 'NONE', 'WORKASPACE' ) );
#122 = DIRECTION ( 'NONE',  ( 1.000000000000000000, 0.0000000000000000000, 0.0000000000000000000 ) ) ;
#123 = ORIENTED_EDGE ( 'NONE', *, *, #213, .T. ) ;
#124 = EDGE_CURVE ( 'NONE', #256, #271, #114, .T. ) ;
#125 = DIRECTION ( 'NONE',  ( -0.8571673007021120005, 1.049727191138618326E-16, 0.5150380749100547106 ) ) ;
#126 = CARTESIAN_POINT ( 'NONE',  ( 0.0000000000000000000, 0.0000000000000000000, 0.0000000000000000000 ) ) ;
#127 = PERSON_AND_ORGANIZATION ( #273, #98 ) ;
#128 = VECTOR ( 'NONE', #328, 1000.000000000000000 ) ;
#129 = AXIS2_PLACEMENT_3D ( 'NONE', #355, #294, #223 ) ;
#130 = APPROVAL_STATUS ( 'not_yet_approved' ) ;
#131 = LINE ( 'NONE', #276, #343 ) ;
#132 = VERTEX_POINT ( 'NONE', #379 ) ;
#133 = CC_DESIGN_APPROVAL ( #216, ( #13 ) ) ;
#134 = DIRECTION ( 'NONE',  ( 1.000000000000000000, 0.0000000000000000000, 0.0000000000000000000 ) ) ;
#135 = CONICAL_SURFACE ( 'NONE', #217, 6.149999999999997691, 1.029744258676653867 ) ;
#136 = PLANE ( 'NONE',  #66 ) ;
#137 = APPROVAL_DATE_TIME ( #229, #375 ) ;
#138 = CIRCLE ( 'NONE', #89, 6.649999999999999467 ) ;
#139 = AXIS2_PLACEMENT_3D ( 'NONE', #341, #277, #367 ) ;
#140 = ORIENTED_EDGE ( 'NONE', *, *, #210, .T. ) ;
#141 = AXIS2_PLACEMENT_3D ( 'NONE', #278, #34, #70 ) ;
#142 = DIRECTION ( 'NONE',  ( 1.000000000000000000, 0.0000000000000000000, 0.0000000000000000000 ) ) ;
#143 = ORIENTED_EDGE ( 'NONE', *, *, #77, .T. ) ;
#144 = DIRECTION ( 'NONE',  ( -0.0000000000000000000, -0.0000000000000000000, 1.000000000000000000 ) ) ;
#145 = CARTESIAN_POINT ( 'NONE',  ( -7.500000000000000000, 0.0000000000000000000, 15.00000000000000000 ) ) ;
#146 = PERSON_AND_ORGANIZATION ( #273, #98 ) ;
#147 = FACE_OUTER_BOUND ( 'NONE', #285, .T. ) ;
#148 = VERTEX_POINT ( 'NONE', #84 ) ;
#149 = CARTESIAN_POINT ( 'NONE',  ( 0.0000000000000000000, 0.0000000000000000000, 15.00000000000000000 ) ) ;
#150 = CARTESIAN_POINT ( 'NONE',  ( 0.0000000000000000000, 0.0000000000000000000, 5.000000000000000888 ) ) ;
#151 = DIRECTION ( 'NONE',  ( 0.7071067811865463515, 0.0000000000000000000, 0.7071067811865487940 ) ) ;
#152 = APPROVAL_ROLE ( '' ) ;
#153 = LOCAL_TIME ( 15, 28, 18.00000000000000000, #317 ) ;
#154 = ORIENTED_EDGE ( 'NONE', *, *, #213, .F. ) ;
#155 = DIRECTION ( 'NONE',  ( -0.0000000000000000000, -0.0000000000000000000, -1.000000000000000000 ) ) ;
#156 = AXIS2_PLACEMENT_3D ( 'NONE', #304, #202, #99 ) ;
#157 =( NAMED_UNIT ( * ) PLANE_ANGLE_UNIT ( ) SI_UNIT ( $, .RADIAN. ) );
#158 = PERSON_AND_ORGANIZATION ( #273, #98 ) ;
#159 = CYLINDRICAL_SURFACE ( 'NONE', #254, 6.149999999999997691 ) ;
#160 = VERTEX_POINT ( 'NONE', #261 ) ;
#161 = AXIS2_PLACEMENT_3D ( 'NONE', #11, #335, #122 ) ;
#162 = APPROVAL_PERSON_ORGANIZATION ( #20, #375, #44 ) ;
#163 = EDGE_LOOP ( 'NONE', ( #314, #361, #27, #240 ) ) ;
#164 = DIRECTION ( 'NONE',  ( 1.000000000000000000, 0.0000000000000000000, -0.0000000000000000000 ) ) ;
#165 = LOCAL_TIME ( 15, 28, 18.00000000000000000, #16 ) ;
#166 = EDGE_LOOP ( 'NONE', ( #170, #309, #351, #337 ) ) ;
#167 = EDGE_CURVE ( 'NONE', #17, #160, #138, .T. ) ;
#168 = CARTESIAN_POINT ( 'NONE',  ( 0.0000000000000000000, 0.0000000000000000000, 14.49999999999999467 ) ) ;
#169 = AXIS2_PLACEMENT_3D ( 'NONE', #28, #64, #88 ) ;
#170 = ORIENTED_EDGE ( 'NONE', *, *, #118, .F. ) ;
#171 = AXIS2_PLACEMENT_3D ( 'NONE', #126, #155, #134 ) ;
#172 = CARTESIAN_POINT ( 'NONE',  ( -7.500000000000000000, 0.0000000000000000000, 1.000000000000007772 ) ) ;
#173 = CIRCLE ( 'NONE', #171, 6.499999999999985789 ) ;
#174 = DIRECTION ( 'NONE',  ( 0.0000000000000000000, 0.0000000000000000000, 1.000000000000000000 ) ) ;
#175 = ORIENTED_EDGE ( 'NONE', *, *, #349, .F. ) ;
#176 = CARTESIAN_POINT ( 'NONE',  ( 0.0000000000000000000, 0.0000000000000000000, 14.49999999999999467 ) ) ;
#177 = DIRECTION ( 'NONE',  ( -0.0000000000000000000, -0.0000000000000000000, 1.000000000000000000 ) ) ;
#178 = FACE_OUTER_BOUND ( 'NONE', #166, .T. ) ;
#179 = CARTESIAN_POINT ( 'NONE',  ( -6.149999999999997691, 7.531577814756219106E-16, 5.000000000000000888 ) ) ;
#180 = ORIENTED_EDGE ( 'NONE', *, *, #18, .F. ) ;
#181 = ORIENTED_EDGE ( 'NONE', *, *, #24, .T. ) ;
#182 =( LENGTH_UNIT ( ) NAMED_UNIT ( * ) SI_UNIT ( .MILLI., .METRE. ) );
#183 = COORDINATED_UNIVERSAL_TIME_OFFSET ( 1, 0, .AHEAD. ) ;
#184 = DIRECTION ( 'NONE',  ( 1.000000000000000000, 0.0000000000000000000, 0.0000000000000000000 ) ) ;
#185 = FACE_OUTER_BOUND ( 'NONE', #206, .T. ) ;
#186 = PRODUCT_DEFINITION ( 'NEZNÁMÝ', '', #247, #339 ) ;
#187 = EDGE_CURVE ( 'NONE', #338, #241, #322, .T. ) ;
#188 = CONICAL_SURFACE ( 'NONE', #161, 7.500000000000000000, 0.7853981633974513876 ) ;
#189 = ORIENTED_EDGE ( 'NONE', *, *, #113, .T. ) ;
#190 = AXIS2_PLACEMENT_3D ( 'NONE', #150, #177, #267 ) ;
#191 = ADVANCED_FACE ( 'NONE', ( #346 ), #159, .F. ) ;
#192 = PERSON_AND_ORGANIZATION ( #273, #98 ) ;
#193 = FACE_OUTER_BOUND ( 'NONE', #378, .T. ) ;
#194 = EDGE_CURVE ( 'NONE', #251, #256, #357, .T. ) ;
#195 = ADVANCED_FACE ( 'NONE', ( #185 ), #76, .F. ) ;
#196 = CONICAL_SURFACE ( 'NONE', #345, 6.149999999999997691, 0.7853981633974466137 ) ;
#197 = ORIENTED_EDGE ( 'NONE', *, *, #167, .F. ) ;
#198 = DIRECTION ( 'NONE',  ( 1.000000000000000000, 0.0000000000000000000, 0.0000000000000000000 ) ) ;
#199 = CALENDAR_DATE ( 2019, 13, 2 ) ;
#200 = DIRECTION ( 'NONE',  ( 0.0000000000000000000, 0.0000000000000000000, 1.000000000000000000 ) ) ;
#201 = AXIS2_PLACEMENT_3D ( 'NONE', #149, #360, #300 ) ;
#202 = DIRECTION ( 'NONE',  ( -0.0000000000000000000, -0.0000000000000000000, -1.000000000000000000 ) ) ;
#203 = CYLINDRICAL_SURFACE ( 'NONE', #239, 7.500000000000000000 ) ;
#204 = DIRECTION ( 'NONE',  ( -0.0000000000000000000, -0.0000000000000000000, -1.000000000000000000 ) ) ;
#205 = ORIENTED_EDGE ( 'NONE', *, *, #210, .F. ) ;
#206 = EDGE_LOOP ( 'NONE', ( #215, #175, #263, #197 ) ) ;
#207 = DIRECTION ( 'NONE',  ( 1.000000000000000000, 0.0000000000000000000, 0.0000000000000000000 ) ) ;
#208 = SHAPE_DEFINITION_REPRESENTATION ( #286, #259 ) ;
#209 = FACE_OUTER_BOUND ( 'NONE', #22, .T. ) ;
#210 = EDGE_CURVE ( 'NONE', #271, #256, #111, .T. ) ;
#211 = MECHANICAL_CONTEXT ( 'NONE', #48, 'mechanical' ) ;
#212 = APPLICATION_CONTEXT ( 'configuration controlled 3d designs of mechanical parts and assemblies' ) ;
#213 = EDGE_CURVE ( 'NONE', #160, #17, #47, .T. ) ;
#214 = CIRCLE ( 'NONE', #141, 7.500000000000000000 ) ;
#215 = ORIENTED_EDGE ( 'NONE', *, *, #372, .F. ) ;
#216 = APPROVAL ( #130, 'NEURÈENÝ' ) ;
#217 = AXIS2_PLACEMENT_3D ( 'NONE', #236, #269, #207 ) ;
#218 = CALENDAR_DATE ( 2019, 13, 2 ) ;
#219 = EDGE_LOOP ( 'NONE', ( #93, #73, #377, #205 ) ) ;
#220 = ADVANCED_FACE ( 'NONE', ( #376 ), #91, .F. ) ;
#221 = CC_DESIGN_APPROVAL ( #279, ( #186 ) ) ;
#222 = DATE_AND_TIME ( #218, #165 ) ;
#223 = DIRECTION ( 'NONE',  ( 1.000000000000000000, 0.0000000000000000000, 0.0000000000000000000 ) ) ;
#224 = FACE_OUTER_BOUND ( 'NONE', #15, .T. ) ;
#225 = ORIENTED_EDGE ( 'NONE', *, *, #118, .T. ) ;
#226 = CARTESIAN_POINT ( 'NONE',  ( 0.0000000000000000000, 0.0000000000000000000, 15.00000000000000000 ) ) ;
#227 = EDGE_CURVE ( 'NONE', #68, #148, #281, .T. ) ;
#228 = CC_DESIGN_SECURITY_CLASSIFICATION ( #13, ( #247 ) ) ;
#229 = DATE_AND_TIME ( #65, #153 ) ;
#230 = ORIENTED_EDGE ( 'NONE', *, *, #124, .T. ) ;
#231 = DIRECTION ( 'NONE',  ( 0.0000000000000000000, 0.0000000000000000000, 1.000000000000000000 ) ) ;
#232 = DATE_AND_TIME ( #119, #90 ) ;
#233 = FACE_OUTER_BOUND ( 'NONE', #85, .T. ) ;
#234 = ORIENTED_EDGE ( 'NONE', *, *, #167, .T. ) ;
#235 = CARTESIAN_POINT ( 'NONE',  ( 0.0000000000000000000, 0.0000000000000000000, 15.00000000000000000 ) ) ;
#236 = CARTESIAN_POINT ( 'NONE',  ( 0.0000000000000000000, 0.0000000000000000000, 5.000000000000000888 ) ) ;
#237 = DIRECTION ( 'NONE',  ( 1.000000000000000000, 0.0000000000000000000, 0.0000000000000000000 ) ) ;
#238 = CARTESIAN_POINT ( 'NONE',  ( 0.0000000000000000000, 0.0000000000000000000, 0.0000000000000000000 ) ) ;
#239 = AXIS2_PLACEMENT_3D ( 'NONE', #333, #95, #307 ) ;
#240 = ORIENTED_EDGE ( 'NONE', *, *, #349, .T. ) ;
#241 = VERTEX_POINT ( 'NONE', #33 ) ;
#242 = DIRECTION ( 'NONE',  ( -0.0000000000000000000, -0.0000000000000000000, 1.000000000000000000 ) ) ;
#243 = APPROVAL_ROLE ( '' ) ;
#244 = DATE_TIME_ROLE ( 'creation_date' ) ;
#245 = PERSON_AND_ORGANIZATION ( #273, #98 ) ;
#246 = CIRCLE ( 'NONE', #190, 6.149999999999997691 ) ;
#247 = PRODUCT_DEFINITION_FORMATION_WITH_SPECIFIED_SOURCE ( 'LIBOVOLNÝ', '', #305, .NOT_KNOWN. ) ;
#248 = ORIENTED_EDGE ( 'NONE', *, *, #5, .T. ) ;
#249 = EDGE_CURVE ( 'NONE', #132, #271, #108, .T. ) ;
#250 = ORIENTED_EDGE ( 'NONE', *, *, #315, .T. ) ;
#251 = VERTEX_POINT ( 'NONE', #359 ) ;
#252 = CC_DESIGN_PERSON_AND_ORGANIZATION_ASSIGNMENT ( #8, #96, ( #305 ) ) ;
#253 = DIRECTION ( 'NONE',  ( -0.0000000000000000000, -0.0000000000000000000, 1.000000000000000000 ) ) ;
#254 = AXIS2_PLACEMENT_3D ( 'NONE', #58, #112, #258 ) ;
#255 = CIRCLE ( 'NONE', #284, 6.499999999999985789 ) ;
#256 = VERTEX_POINT ( 'NONE', #87 ) ;
#257 = DIRECTION ( 'NONE',  ( 0.8571673007021120005, 0.0000000000000000000, 0.5150380749100547106 ) ) ;
#258 = DIRECTION ( 'NONE',  ( 1.000000000000000000, 0.0000000000000000000, 0.0000000000000000000 ) ) ;
#259 = ADVANCED_BREP_SHAPE_REPRESENTATION ( 'A10_0015-012-A', ( #264, #83 ), #121 ) ;
#260 = AXIS2_PLACEMENT_3D ( 'NONE', #168, #23, #329 ) ;
#261 = CARTESIAN_POINT ( 'NONE',  ( 6.649999999999999467, 0.0000000000000000000, 15.00000000000000000 ) ) ;
#262 = VECTOR ( 'NONE', #92, 1000.000000000000000 ) ;
#263 = ORIENTED_EDGE ( 'NONE', *, *, #18, .T. ) ;
#264 = MANIFOLD_SOLID_BREP ( 'Zkosení2', #331 ) ;
#265 = DIRECTION ( 'NONE',  ( -0.0000000000000000000, -0.0000000000000000000, -1.000000000000000000 ) ) ;
#266 = CONICAL_SURFACE ( 'NONE', #358, 7.500000000000000000, 0.7853981633974513876 ) ;
#267 = DIRECTION ( 'NONE',  ( 1.000000000000000000, 0.0000000000000000000, 0.0000000000000000000 ) ) ;
#268 = PRODUCT_RELATED_PRODUCT_CATEGORY ( 'detail', '', ( #305 ) ) ;
#269 = DIRECTION ( 'NONE',  ( -0.0000000000000000000, -0.0000000000000000000, 1.000000000000000000 ) ) ;
#270 = EDGE_CURVE ( 'NONE', #50, #271, #290, .T. ) ;
#271 = VERTEX_POINT ( 'NONE', #172 ) ;
#272 = APPROVAL_STATUS ( 'not_yet_approved' ) ;
#273 = PERSON ( 'NEURÈENÝ', 'NEURÈENÝ', 'NEURÈENÝ', ('NEURÈENÝ'), ('NEURÈENÝ'), ('NEURÈENÝ') ) ;
#274 = DIRECTION ( 'NONE',  ( -0.0000000000000000000, -0.0000000000000000000, -1.000000000000000000 ) ) ;
#275 = AXIS2_PLACEMENT_3D ( 'NONE', #295, #327, #142 ) ;
#276 = CARTESIAN_POINT ( 'NONE',  ( -6.149999999999997691, 7.531577814756219106E-16, 15.00000000000000000 ) ) ;
#277 = DIRECTION ( 'NONE',  ( 0.0000000000000000000, 0.0000000000000000000, 1.000000000000000000 ) ) ;
#278 = CARTESIAN_POINT ( 'NONE',  ( 0.0000000000000000000, 0.0000000000000000000, 15.00000000000000000 ) ) ;
#279 = APPROVAL ( #272, 'NEURÈENÝ' ) ;
#280 = CARTESIAN_POINT ( 'NONE',  ( -6.149999999999997691, 7.531577814756219106E-16, 14.49999999999999467 ) ) ;
#281 = CIRCLE ( 'NONE', #299, 6.149999999999997691 ) ;
#282 = PERSON_AND_ORGANIZATION_ROLE ( 'creator' ) ;
#283 = CIRCLE ( 'NONE', #139, 6.149999999999997691 ) ;
#284 = AXIS2_PLACEMENT_3D ( 'NONE', #356, #61, #116 ) ;
#285 = EDGE_LOOP ( 'NONE', ( #78, #353, #374, #140 ) ) ;
#286 = PRODUCT_DEFINITION_SHAPE ( 'NONE', 'NONE',  #186 ) ;
#287 = LOCAL_TIME ( 15, 28, 18.00000000000000000, #183 ) ;
#288 = DIRECTION ( 'NONE',  ( 1.000000000000000000, 0.0000000000000000000, 0.0000000000000000000 ) ) ;
#289 = APPROVAL_PERSON_ORGANIZATION ( #127, #216, #152 ) ;
#290 = LINE ( 'NONE', #302, #128 ) ;
#291 = ADVANCED_FACE ( 'NONE', ( #30 ), #336, .F. ) ;
#292 = ORIENTED_EDGE ( 'NONE', *, *, #187, .F. ) ;
#293 = EDGE_CURVE ( 'NONE', #79, #132, #81, .T. ) ;
#294 = DIRECTION ( 'NONE',  ( -0.0000000000000000000, -0.0000000000000000000, 1.000000000000000000 ) ) ;
#295 = CARTESIAN_POINT ( 'NONE',  ( 0.0000000000000000000, 0.0000000000000000000, 5.000000000000000888 ) ) ;
#296 = ADVANCED_FACE ( 'NONE', ( #209 ), #196, .F. ) ;
#297 = LINE ( 'NONE', #102, #59 ) ;
#298 = DIRECTION ( 'NONE',  ( 1.000000000000000000, 0.0000000000000000000, 0.0000000000000000000 ) ) ;
#299 = AXIS2_PLACEMENT_3D ( 'NONE', #94, #332, #120 ) ;
#300 = DIRECTION ( 'NONE',  ( 1.000000000000000000, 0.0000000000000000000, 0.0000000000000000000 ) ) ;
#301 = FACE_OUTER_BOUND ( 'NONE', #219, .T. ) ;
#302 = CARTESIAN_POINT ( 'NONE',  ( -7.500000000000000000, 9.184850993605147944E-16, 1.000000000000007772 ) ) ;
#303 = VERTEX_POINT ( 'NONE', #69 ) ;
#304 = CARTESIAN_POINT ( 'NONE',  ( 0.0000000000000000000, 0.0000000000000000000, 15.00000000000000000 ) ) ;
#305 = PRODUCT ( 'A10_0015-012-A', 'A10_0015-012-A', '', ( #211 ) ) ;
#306 = CARTESIAN_POINT ( 'NONE',  ( 0.0000000000000000000, 0.0000000000000000000, 0.0000000000000000000 ) ) ;
#307 = DIRECTION ( 'NONE',  ( -1.000000000000000000, 0.0000000000000000000, 0.0000000000000000000 ) ) ;
#308 = APPROVAL_DATE_TIME ( #222, #216 ) ;
#309 = ORIENTED_EDGE ( 'NONE', *, *, #270, .T. ) ;
#310 = DIRECTION ( 'NONE',  ( -0.0000000000000000000, -0.0000000000000000000, 1.000000000000000000 ) ) ;
#311 = DIRECTION ( 'NONE',  ( 1.000000000000000000, 0.0000000000000000000, -0.0000000000000000000 ) ) ;
#312 = CARTESIAN_POINT ( 'NONE',  ( 0.0000000000000000000, 0.0000000000000000000, 1.000000000000007772 ) ) ;
#313 = FACE_OUTER_BOUND ( 'NONE', #106, .T. ) ;
#314 = ORIENTED_EDGE ( 'NONE', *, *, #77, .F. ) ;
#315 = EDGE_CURVE ( 'NONE', #241, #303, #246, .T. ) ;
#316 = ADVANCED_FACE ( 'NONE', ( #193 ), #31, .F. ) ;
#317 = COORDINATED_UNIVERSAL_TIME_OFFSET ( 1, 0, .AHEAD. ) ;
#318 = EDGE_LOOP ( 'NONE', ( #123, #234 ) ) ;
#319 = CARTESIAN_POINT ( 'NONE',  ( 0.0000000000000000000, 0.0000000000000000000, 15.00000000000000000 ) ) ;
#320 = AXIS2_PLACEMENT_3D ( 'NONE', #1, #174, #237 ) ;
#321 = LOCAL_TIME ( 15, 28, 18.00000000000000000, #373 ) ;
#322 = LINE ( 'NONE', #86, #36 ) ;
#323 = ORIENTED_EDGE ( 'NONE', *, *, #334, .T. ) ;
#324 = AXIS2_PLACEMENT_3D ( 'NONE', #235, #204, #362 ) ;
#325 = DATE_AND_TIME ( #369, #287 ) ;
#326 = ORIENTED_EDGE ( 'NONE', *, *, #249, .F. ) ;
#327 = DIRECTION ( 'NONE',  ( -0.0000000000000000000, -0.0000000000000000000, 1.000000000000000000 ) ) ;
#328 = DIRECTION ( 'NONE',  ( -0.7071067811865496822, 8.659560562354959975E-17, 0.7071067811865453523 ) ) ;
#329 = DIRECTION ( 'NONE',  ( 1.000000000000000000, 0.0000000000000000000, 0.0000000000000000000 ) ) ;
#330 = CIRCLE ( 'NONE', #275, 6.149999999999997691 ) ;
#331 = CLOSED_SHELL ( 'NONE', ( #296, #291, #19, #53, #46, #51, #80, #316, #350, #220, #191, #195 ) ) ;
#332 = DIRECTION ( 'NONE',  ( 0.0000000000000000000, 0.0000000000000000000, 1.000000000000000000 ) ) ;
#333 = CARTESIAN_POINT ( 'NONE',  ( 0.0000000000000000000, 0.0000000000000000000, 15.00000000000000000 ) ) ;
#334 = EDGE_CURVE ( 'NONE', #79, #256, #297, .T. ) ;
#335 = DIRECTION ( 'NONE',  ( -0.0000000000000000000, -0.0000000000000000000, 1.000000000000000000 ) ) ;
#336 = CYLINDRICAL_SURFACE ( 'NONE', #201, 6.149999999999997691 ) ;
#337 = ORIENTED_EDGE ( 'NONE', *, *, #194, .F. ) ;
#338 = VERTEX_POINT ( 'NONE', #72 ) ;
#339 = DESIGN_CONTEXT ( 'detailed design', #212, 'design' ) ;
#340 =( NAMED_UNIT ( * ) SI_UNIT ( $, .STERADIAN. ) SOLID_ANGLE_UNIT ( ) );
#341 = CARTESIAN_POINT ( 'NONE',  ( 0.0000000000000000000, 0.0000000000000000000, 14.49999999999999467 ) ) ;
#342 = DATE_AND_TIME ( #199, #321 ) ;
#343 = VECTOR ( 'NONE', #253, 1000.000000000000000 ) ;
#344 = ORIENTED_EDGE ( 'NONE', *, *, #187, .T. ) ;
#345 = AXIS2_PLACEMENT_3D ( 'NONE', #176, #200, #198 ) ;
#346 = FACE_OUTER_BOUND ( 'NONE', #163, .T. ) ;
#347 = ORIENTED_EDGE ( 'NONE', *, *, #227, .T. ) ;
#348 = CARTESIAN_POINT ( 'NONE',  ( 7.500000000000000000, 9.184850993605147944E-16, 15.00000000000000000 ) ) ;
#349 = EDGE_CURVE ( 'NONE', #148, #68, #283, .T. ) ;
#350 = ADVANCED_FACE ( 'NONE', ( #301 ), #266, .T. ) ;
#351 = ORIENTED_EDGE ( 'NONE', *, *, #124, .F. ) ;
#352 = LINE ( 'NONE', #280, #366 ) ;
#353 = ORIENTED_EDGE ( 'NONE', *, *, #5, .F. ) ;
#354 = UNCERTAINTY_MEASURE_WITH_UNIT (LENGTH_MEASURE( 1.000000000000000082E-05 ), #182, 'distance_accuracy_value', 'NONE');
#355 = CARTESIAN_POINT ( 'NONE',  ( 0.0000000000000000000, 0.0000000000000000000, 1.000000000000007772 ) ) ;
#356 = CARTESIAN_POINT ( 'NONE',  ( 0.0000000000000000000, 0.0000000000000000000, 0.0000000000000000000 ) ) ;
#357 = LINE ( 'NONE', #35, #262 ) ;
#358 = AXIS2_PLACEMENT_3D ( 'NONE', #312, #242, #368 ) ;
#359 = CARTESIAN_POINT ( 'NONE',  ( 6.499999999999985789, 0.0000000000000000000, 0.0000000000000000000 ) ) ;
#360 = DIRECTION ( 'NONE',  ( -0.0000000000000000000, -0.0000000000000000000, 1.000000000000000000 ) ) ;
#361 = ORIENTED_EDGE ( 'NONE', *, *, #315, .F. ) ;
#362 = DIRECTION ( 'NONE',  ( 1.000000000000000000, 0.0000000000000000000, 0.0000000000000000000 ) ) ;
#363 = CC_DESIGN_DATE_AND_TIME_ASSIGNMENT ( #325, #43, ( #13 ) ) ;
#364 = CARTESIAN_POINT ( 'NONE',  ( -6.149999999999997691, 7.531577814756219106E-16, 14.49999999999999467 ) ) ;
#365 = APPLICATION_PROTOCOL_DEFINITION ( 'international standard', 'config_control_design', 1994, #48 ) ;
#366 = VECTOR ( 'NONE', #37, 1000.000000000000000 ) ;
#367 = DIRECTION ( 'NONE',  ( 1.000000000000000000, 0.0000000000000000000, 0.0000000000000000000 ) ) ;
#368 = DIRECTION ( 'NONE',  ( 1.000000000000000000, 0.0000000000000000000, 0.0000000000000000000 ) ) ;
#369 = CALENDAR_DATE ( 2019, 13, 2 ) ;
#370 = LINE ( 'NONE', #42, #49 ) ;
#371 = EDGE_LOOP ( 'NONE', ( #60, #344, #250 ) ) ;
#372 = EDGE_CURVE ( 'NONE', #68, #17, #352, .T. ) ;
#373 = COORDINATED_UNIVERSAL_TIME_OFFSET ( 1, 0, .AHEAD. ) ;
#374 = ORIENTED_EDGE ( 'NONE', *, *, #249, .T. ) ;
#375 = APPROVAL ( #10, 'NEURÈENÝ' ) ;
#376 = FACE_OUTER_BOUND ( 'NONE', #371, .T. ) ;
#377 = ORIENTED_EDGE ( 'NONE', *, *, #194, .T. ) ;
#378 = EDGE_LOOP ( 'NONE', ( #9, #225 ) ) ;
#379 = CARTESIAN_POINT ( 'NONE',  ( -7.500000000000000000, 0.0000000000000000000, 15.00000000000000000 ) ) ;
ENDSEC;
END-ISO-10303-21;
