ISO-10303-21;
HEADER;
FILE_DESCRIPTION (( 'STEP AP214' ),
    '1' );
FILE_NAME ('A_0221-016.STEP',
    '2018-09-29T12:26:41',
    ( '' ),
    ( '' ),
    'SwSTEP 2.0',
    'SolidWorks 2013',
    '' );
FILE_SCHEMA (( 'AUTOMOTIVE_DESIGN' ));
ENDSEC;

DATA;
#1 = CARTESIAN_POINT ( 'NONE',  ( -9.099999999999999600, -1.114428587224091500E-015, 0.0000000000000000000 ) ) ;
#2 = DIRECTION ( 'NONE',  ( -1.387778780781445700E-016, 1.000000000000000000, 0.0000000000000000000 ) ) ;
#3 = FILL_AREA_STYLE_COLOUR ( '', #57 ) ;
#4 = LINE ( 'NONE', #6, #59 ) ;
#5 = PRODUCT_RELATED_PRODUCT_CATEGORY ( 'part', '', ( #87 ) ) ;
#6 = CARTESIAN_POINT ( 'NONE',  ( 0.0000000000000000000, 9.980871413050926000E-016, 8.149999999999996800 ) ) ;
#7 = ORIENTED_EDGE ( 'NONE', *, *, #135, .F. ) ;
#8 = AXIS2_PLACEMENT_3D ( 'NONE', #137, #68, #82 ) ;
#9 = AXIS2_PLACEMENT_3D ( 'NONE', #208, #124, #173 ) ;
#10 = UNCERTAINTY_MEASURE_WITH_UNIT (LENGTH_MEASURE( 1.000000000000000100E-005 ), #211, 'distance_accuracy_value', 'NONE');
#11 = FACE_OUTER_BOUND ( 'NONE', #91, .T. ) ;
#12 = ORIENTED_EDGE ( 'NONE', *, *, #108, .F. ) ;
#13 = ADVANCED_BREP_SHAPE_REPRESENTATION ( 'A_0221-016', ( #160, #9 ), #21 ) ;
#14 = SPHERICAL_SURFACE ( 'NONE', #214, 12.50000000000000000 ) ;
#15 = STYLED_ITEM ( 'NONE', ( #191 ), #160 ) ;
#16 = CARTESIAN_POINT ( 'NONE',  ( 0.0000000000000000000, 0.0000000000000000000, 0.0000000000000000000 ) ) ;
#17 = ADVANCED_FACE ( 'NONE', ( #168 ), #46, .F. ) ;
#18 = CARTESIAN_POINT ( 'NONE',  ( 0.0000000000000000000, 0.0000000000000000000, -8.149999999999996800 ) ) ;
#19 = COLOUR_RGB ( '',0.6156862745098039500, 0.6431372549019607200, 0.6745098039215686700 ) ;
#20 = CARTESIAN_POINT ( 'NONE',  ( -12.50000000000000000, 0.0000000000000000000, 0.0000000000000000000 ) ) ;
#21 =( GEOMETRIC_REPRESENTATION_CONTEXT ( 3 ) GLOBAL_UNCERTAINTY_ASSIGNED_CONTEXT ( ( #122 ) ) GLOBAL_UNIT_ASSIGNED_CONTEXT ( ( #103, #27, #142 ) ) REPRESENTATION_CONTEXT ( 'NONE', 'WORKASPACE' ) );
#22 = DIRECTION ( 'NONE',  ( 1.000000000000000000, 1.224646799147353500E-016, -0.0000000000000000000 ) ) ;
#23 = ORIENTED_EDGE ( 'NONE', *, *, #58, .T. ) ;
#24 = APPLICATION_PROTOCOL_DEFINITION ( 'draft international standard', 'automotive_design', 1998, #196 ) ;
#25 = CARTESIAN_POINT ( 'NONE',  ( -2.449293598294706400E-016, 0.0000000000000000000, 0.0000000000000000000 ) ) ;
#26 = UNCERTAINTY_MEASURE_WITH_UNIT (LENGTH_MEASURE( 1.000000000000000100E-005 ), #55, 'distance_accuracy_value', 'NONE');
#27 =( NAMED_UNIT ( * ) PLANE_ANGLE_UNIT ( ) SI_UNIT ( $, .RADIAN. ) );
#28 = PRODUCT_DEFINITION ( 'NEZNÁMÝ', '', #32, #90 ) ;
#29 = DIRECTION ( 'NONE',  ( 0.0000000000000000000, 0.0000000000000000000, -1.000000000000000000 ) ) ;
#30 = STYLED_ITEM ( 'NONE', ( #128 ), #13 ) ;
#31 = VERTEX_POINT ( 'NONE', #94 ) ;
#32 = PRODUCT_DEFINITION_FORMATION_WITH_SPECIFIED_SOURCE ( 'LIBOVOLNÝ', '', #87, .NOT_KNOWN. ) ;
#33 = VERTEX_POINT ( 'NONE', #215 ) ;
#34 = ORIENTED_EDGE ( 'NONE', *, *, #77, .F. ) ;
#35 = DIRECTION ( 'NONE',  ( 1.000000000000000000, -0.0000000000000000000, -0.0000000000000000000 ) ) ;
#36 = ADVANCED_FACE ( 'NONE', ( #78 ), #158, .F. ) ;
#37 = DIRECTION ( 'NONE',  ( 0.0000000000000000000, 0.0000000000000000000, -1.000000000000000000 ) ) ;
#38 = AXIS2_PLACEMENT_3D ( 'NONE', #195, #194, #29 ) ;
#39 = ORIENTED_EDGE ( 'NONE', *, *, #53, .T. ) ;
#40 = VECTOR ( 'NONE', #84, 1000.000000000000000 ) ;
#41 = SURFACE_SIDE_STYLE ('',( #111 ) ) ;
#42 = CARTESIAN_POINT ( 'NONE',  ( -21.60000000000000100, -1.879832836691187500E-015, 0.0000000000000000000 ) ) ;
#43 = EDGE_CURVE ( 'NONE', #31, #71, #130, .T. ) ;
#44 = ORIENTED_EDGE ( 'NONE', *, *, #53, .F. ) ;
#45 = ORIENTED_EDGE ( 'NONE', *, *, #189, .T. ) ;
#46 = CONICAL_SURFACE ( 'NONE', #65, 8.149999999999996800, 1.029744258676653900 ) ;
#47 = DIRECTION ( 'NONE',  ( 0.0000000000000000000, 0.0000000000000000000, -1.000000000000000000 ) ) ;
#48 = DIRECTION ( 'NONE',  ( -1.224646799147353500E-016, 1.000000000000000000, 0.0000000000000000000 ) ) ;
#49 = LINE ( 'NONE', #121, #198 ) ;
#50 = CARTESIAN_POINT ( 'NONE',  ( -9.099999999999999600, -1.114428587224091500E-015, 0.0000000000000000000 ) ) ;
#51 = ORIENTED_EDGE ( 'NONE', *, *, #60, .T. ) ;
#52 = PLANE ( 'NONE',  #151 ) ;
#53 = EDGE_CURVE ( 'NONE', #203, #153, #212, .T. ) ;
#54 = CARTESIAN_POINT ( 'NONE',  ( -4.154683131967831000E-015, -5.088019399035905900E-031, 0.0000000000000000000 ) ) ;
#55 =( LENGTH_UNIT ( ) NAMED_UNIT ( * ) SI_UNIT ( .MILLI., .METRE. ) );
#56 = SURFACE_STYLE_USAGE ( .BOTH. , #41 ) ;
#57 = COLOUR_RGB ( '',0.6156862745098039500, 0.6431372549019607200, 0.6745098039215686700 ) ;
#58 = EDGE_CURVE ( 'NONE', #71, #117, #207, .T. ) ;
#59 = VECTOR ( 'NONE', #72, 1000.000000000000000 ) ;
#60 = EDGE_CURVE ( 'NONE', #153, #203, #120, .T. ) ;
#61 = FACE_OUTER_BOUND ( 'NONE', #184, .T. ) ;
#62 = ORIENTED_EDGE ( 'NONE', *, *, #166, .F. ) ;
#63 = DIRECTION ( 'NONE',  ( 0.5150380749100547100, 1.049727191138618300E-016, 0.8571673007021120000 ) ) ;
#64 = CARTESIAN_POINT ( 'NONE',  ( -2.449293598294706400E-016, 0.0000000000000000000, 0.0000000000000000000 ) ) ;
#65 = AXIS2_PLACEMENT_3D ( 'NONE', #218, #35, #185 ) ;
#66 = CARTESIAN_POINT ( 'NONE',  ( -2.449293598294706400E-016, 9.980871413050928000E-016, 8.149999999999998600 ) ) ;
#67 = PRESENTATION_LAYER_ASSIGNMENT (  '', '', ( #30 ) ) ;
#68 = DIRECTION ( 'NONE',  ( 1.000000000000000000, 1.224646799147353500E-016, -0.0000000000000000000 ) ) ;
#69 = VERTEX_POINT ( 'NONE', #101 ) ;
#70 = CARTESIAN_POINT ( 'NONE',  ( -9.099999999999999600, -1.114428587224091500E-015, 0.0000000000000000000 ) ) ;
#71 = VERTEX_POINT ( 'NONE', #116 ) ;
#72 = DIRECTION ( 'NONE',  ( 1.000000000000000000, -0.0000000000000000000, -0.0000000000000000000 ) ) ;
#73 = FILL_AREA_STYLE_COLOUR ( '', #19 ) ;
#74 = AXIS2_PLACEMENT_3D ( 'NONE', #16, #113, #47 ) ;
#75 = ORIENTED_EDGE ( 'NONE', *, *, #77, .T. ) ;
#76 = CYLINDRICAL_SURFACE ( 'NONE', #38, 8.149999999999996800 ) ;
#77 = EDGE_CURVE ( 'NONE', #155, #203, #114, .T. ) ;
#78 = FACE_OUTER_BOUND ( 'NONE', #131, .T. ) ;
#79 = ADVANCED_FACE ( 'NONE', ( #179 ), #213, .F. ) ;
#80 = DIRECTION ( 'NONE',  ( 0.0000000000000000000, 0.0000000000000000000, -1.000000000000000000 ) ) ;
#81 = DIRECTION ( 'NONE',  ( 0.0000000000000000000, 0.0000000000000000000, 1.000000000000000000 ) ) ;
#82 = DIRECTION ( 'NONE',  ( -1.224646799147353500E-016, 1.000000000000000000, 0.0000000000000000000 ) ) ;
#83 = ORIENTED_EDGE ( 'NONE', *, *, #189, .F. ) ;
#84 = DIRECTION ( 'NONE',  ( 1.000000000000000000, -0.0000000000000000000, -0.0000000000000000000 ) ) ;
#85 = PRODUCT_CONTEXT ( 'NONE', #196, 'mechanical' ) ;
#86 = FILL_AREA_STYLE ('',( #73 ) ) ;
#87 = PRODUCT ( 'A_0221-016', 'A_0221-016', '', ( #85 ) ) ;
#88 = ORIENTED_EDGE ( 'NONE', *, *, #135, .T. ) ;
#89 = MECHANICAL_DESIGN_GEOMETRIC_PRESENTATION_REPRESENTATION (  '', ( #30 ), #100 ) ;
#90 = PRODUCT_DEFINITION_CONTEXT ( 'detailed design', #197, 'design' ) ;
#91 = EDGE_LOOP ( 'NONE', ( #125, #7, #178, #23 ) ) ;
#92 = ADVANCED_FACE ( 'NONE', ( #186, #219 ), #52, .T. ) ;
#93 = EDGE_LOOP ( 'NONE', ( #12, #220, #88 ) ) ;
#94 = CARTESIAN_POINT ( 'NONE',  ( -12.50000000000000000, 0.0000000000000000000, -8.149999999999996800 ) ) ;
#95 = ORIENTED_EDGE ( 'NONE', *, *, #108, .T. ) ;
#96 = CARTESIAN_POINT ( 'NONE',  ( -12.50000000000000000, 0.0000000000000000000, 0.0000000000000000000 ) ) ;
#97 =( GEOMETRIC_REPRESENTATION_CONTEXT ( 3 ) GLOBAL_UNCERTAINTY_ASSIGNED_CONTEXT ( ( #10 ) ) GLOBAL_UNIT_ASSIGNED_CONTEXT ( ( #211, #210, #157 ) ) REPRESENTATION_CONTEXT ( 'NONE', 'WORKASPACE' ) );
#98 = SPHERICAL_SURFACE ( 'NONE', #192, 12.50000000000000000 ) ;
#99 = CARTESIAN_POINT ( 'NONE',  ( -12.50000000000000000, 9.980871413050926000E-016, 8.149999999999996800 ) ) ;
#100 =( GEOMETRIC_REPRESENTATION_CONTEXT ( 3 ) GLOBAL_UNCERTAINTY_ASSIGNED_CONTEXT ( ( #26 ) ) GLOBAL_UNIT_ASSIGNED_CONTEXT ( ( #55, #172, #123 ) ) REPRESENTATION_CONTEXT ( 'NONE', 'WORKASPACE' ) );
#101 = CARTESIAN_POINT ( 'NONE',  ( -17.39701404507462000, -3.840072258447884300E-015, 0.0000000000000000000 ) ) ;
#102 = DIRECTION ( 'NONE',  ( 1.000000000000000000, -0.0000000000000000000, -0.0000000000000000000 ) ) ;
#103 =( LENGTH_UNIT ( ) NAMED_UNIT ( * ) SI_UNIT ( .MILLI., .METRE. ) );
#104 = SHAPE_DEFINITION_REPRESENTATION ( #129, #13 ) ;
#105 = CARTESIAN_POINT ( 'NONE',  ( -3.287321393979427500E-015, -8.569714114251423700, 1.049487295962590300E-015 ) ) ;
#106 = SURFACE_STYLE_USAGE ( .BOTH. , #139 ) ;
#107 = APPLICATION_PROTOCOL_DEFINITION ( 'draft international standard', 'automotive_design', 1998, #197 ) ;
#108 = EDGE_CURVE ( 'NONE', #69, #33, #175, .T. ) ;
#109 = ORIENTED_EDGE ( 'NONE', *, *, #119, .F. ) ;
#110 = ORIENTED_EDGE ( 'NONE', *, *, #166, .T. ) ;
#111 = SURFACE_STYLE_FILL_AREA ( #154 ) ;
#112 = AXIS2_PLACEMENT_3D ( 'NONE', #20, #187, #80 ) ;
#113 = DIRECTION ( 'NONE',  ( 1.000000000000000000, -0.0000000000000000000, -0.0000000000000000000 ) ) ;
#114 = CIRCLE ( 'NONE', #182, 12.50000000000000000 ) ;
#115 = ORIENTED_EDGE ( 'NONE', *, *, #58, .F. ) ;
#116 = CARTESIAN_POINT ( 'NONE',  ( -2.449293598294706400E-016, 0.0000000000000000000, -8.149999999999998600 ) ) ;
#117 = VERTEX_POINT ( 'NONE', #66 ) ;
#118 = DIRECTION ( 'NONE',  ( 1.000000000000000000, -0.0000000000000000000, -0.0000000000000000000 ) ) ;
#119 = EDGE_CURVE ( 'NONE', #69, #31, #49, .T. ) ;
#120 = CIRCLE ( 'NONE', #8, 8.569714114251423700 ) ;
#121 = CARTESIAN_POINT ( 'NONE',  ( -12.50000000000000000, 0.0000000000000000000, -8.149999999999996800 ) ) ;
#122 = UNCERTAINTY_MEASURE_WITH_UNIT (LENGTH_MEASURE( 1.000000000000000100E-005 ), #103, 'distance_accuracy_value', 'NONE');
#123 =( NAMED_UNIT ( * ) SI_UNIT ( $, .STERADIAN. ) SOLID_ANGLE_UNIT ( ) );
#124 = DIRECTION ( 'NONE',  ( 0.0000000000000000000, 0.0000000000000000000, 1.000000000000000000 ) ) ;
#125 = ORIENTED_EDGE ( 'NONE', *, *, #159, .F. ) ;
#126 = PRESENTATION_LAYER_ASSIGNMENT (  '', '', ( #15 ) ) ;
#127 = ORIENTED_EDGE ( 'NONE', *, *, #159, .T. ) ;
#128 = PRESENTATION_STYLE_ASSIGNMENT (( #56 ) ) ;
#129 = PRODUCT_DEFINITION_SHAPE ( 'NONE', 'NONE',  #28 ) ;
#130 = LINE ( 'NONE', #18, #40 ) ;
#131 = EDGE_LOOP ( 'NONE', ( #62, #127, #45, #177 ) ) ;
#132 = CIRCLE ( 'NONE', #217, 8.149999999999998600 ) ;
#133 = DIRECTION ( 'NONE',  ( 0.0000000000000000000, -1.000000000000000000, 1.224646799147353200E-016 ) ) ;
#134 = DIRECTION ( 'NONE',  ( -0.0000000000000000000, 0.0000000000000000000, -1.000000000000000000 ) ) ;
#135 = EDGE_CURVE ( 'NONE', #31, #33, #147, .T. ) ;
#136 = EDGE_LOOP ( 'NONE', ( #115, #83 ) ) ;
#137 = CARTESIAN_POINT ( 'NONE',  ( -4.154683131967831000E-015, -5.088019399035905900E-031, 0.0000000000000000000 ) ) ;
#138 = DIRECTION ( 'NONE',  ( -1.224646799147353500E-016, 1.000000000000000000, 0.0000000000000000000 ) ) ;
#139 = SURFACE_SIDE_STYLE ('',( #145 ) ) ;
#140 = VECTOR ( 'NONE', #63, 1000.000000000000000 ) ;
#141 = CARTESIAN_POINT ( 'NONE',  ( -5.204170427930421300E-015, 8.569714114251423700, 0.0000000000000000000 ) ) ;
#142 =( NAMED_UNIT ( * ) SI_UNIT ( $, .STERADIAN. ) SOLID_ANGLE_UNIT ( ) );
#143 = EDGE_CURVE ( 'NONE', #155, #153, #201, .T. ) ;
#144 = EDGE_LOOP ( 'NONE', ( #51, #39 ) ) ;
#145 = SURFACE_STYLE_FILL_AREA ( #86 ) ;
#146 = AXIS2_PLACEMENT_3D ( 'NONE', #54, #205, #48 ) ;
#147 = CIRCLE ( 'NONE', #180, 8.149999999999996800 ) ;
#148 = ADVANCED_FACE ( 'NONE', ( #61 ), #98, .T. ) ;
#149 = ADVANCED_FACE ( 'NONE', ( #150 ), #14, .T. ) ;
#150 = FACE_OUTER_BOUND ( 'NONE', #190, .T. ) ;
#151 = AXIS2_PLACEMENT_3D ( 'NONE', #167, #22, #138 ) ;
#152 = DIRECTION ( 'NONE',  ( -1.000000000000000000, 0.0000000000000000000, 0.0000000000000000000 ) ) ;
#153 = VERTEX_POINT ( 'NONE', #141 ) ;
#154 = FILL_AREA_STYLE ('',( #3 ) ) ;
#155 = VERTEX_POINT ( 'NONE', #42 ) ;
#156 = CARTESIAN_POINT ( 'NONE',  ( -12.50000000000000000, 0.0000000000000000000, 0.0000000000000000000 ) ) ;
#157 =( NAMED_UNIT ( * ) SI_UNIT ( $, .STERADIAN. ) SOLID_ANGLE_UNIT ( ) );
#158 = CYLINDRICAL_SURFACE ( 'NONE', #74, 8.149999999999996800 ) ;
#159 = EDGE_CURVE ( 'NONE', #33, #117, #4, .T. ) ;
#160 = MANIFOLD_SOLID_BREP ( 'O12.2 (12.2) prùmìr díry1', #181 ) ;
#161 = ADVANCED_FACE ( 'NONE', ( #11 ), #76, .F. ) ;
#162 = DIRECTION ( 'NONE',  ( -1.499759782661857900E-032, 1.224646799147353200E-016, 1.000000000000000000 ) ) ;
#163 = CIRCLE ( 'NONE', #206, 8.149999999999996800 ) ;
#164 = DIRECTION ( 'NONE',  ( 0.0000000000000000000, 0.0000000000000000000, -1.000000000000000000 ) ) ;
#165 = ORIENTED_EDGE ( 'NONE', *, *, #143, .T. ) ;
#166 = EDGE_CURVE ( 'NONE', #33, #31, #163, .T. ) ;
#167 = CARTESIAN_POINT ( 'NONE',  ( -3.126828861946505800E-015, 8.569714114251421900, 0.0000000000000000000 ) ) ;
#168 = FACE_OUTER_BOUND ( 'NONE', #93, .T. ) ;
#169 = DIRECTION ( 'NONE',  ( 1.000000000000000000, -0.0000000000000000000, -0.0000000000000000000 ) ) ;
#170 = MECHANICAL_DESIGN_GEOMETRIC_PRESENTATION_REPRESENTATION (  '', ( #15 ), #97 ) ;
#171 = DIRECTION ( 'NONE',  ( 0.0000000000000000000, 0.0000000000000000000, 1.000000000000000000 ) ) ;
#172 =( NAMED_UNIT ( * ) PLANE_ANGLE_UNIT ( ) SI_UNIT ( $, .RADIAN. ) );
#173 = DIRECTION ( 'NONE',  ( 1.000000000000000000, 0.0000000000000000000, 0.0000000000000000000 ) ) ;
#174 = DIRECTION ( 'NONE',  ( -1.387778780781445700E-016, 1.000000000000000000, 0.0000000000000000000 ) ) ;
#175 = LINE ( 'NONE', #99, #140 ) ;
#176 = DIRECTION ( 'NONE',  ( 1.000000000000000000, -0.0000000000000000000, -0.0000000000000000000 ) ) ;
#177 = ORIENTED_EDGE ( 'NONE', *, *, #43, .F. ) ;
#178 = ORIENTED_EDGE ( 'NONE', *, *, #43, .T. ) ;
#179 = FACE_OUTER_BOUND ( 'NONE', #183, .T. ) ;
#180 = AXIS2_PLACEMENT_3D ( 'NONE', #96, #118, #164 ) ;
#181 = CLOSED_SHELL ( 'NONE', ( #36, #79, #148, #92, #149, #17, #161 ) ) ;
#182 = AXIS2_PLACEMENT_3D ( 'NONE', #1, #162, #133 ) ;
#183 = EDGE_LOOP ( 'NONE', ( #109, #95, #110 ) ) ;
#184 = EDGE_LOOP ( 'NONE', ( #202, #75, #216 ) ) ;
#185 = DIRECTION ( 'NONE',  ( 0.0000000000000000000, 0.0000000000000000000, -1.000000000000000000 ) ) ;
#186 = FACE_BOUND ( 'NONE', #136, .T. ) ;
#187 = DIRECTION ( 'NONE',  ( 1.000000000000000000, -0.0000000000000000000, -0.0000000000000000000 ) ) ;
#188 = DIRECTION ( 'NONE',  ( 0.5150380749100547100, 0.0000000000000000000, -0.8571673007021120000 ) ) ;
#189 = EDGE_CURVE ( 'NONE', #117, #71, #132, .T. ) ;
#190 = EDGE_LOOP ( 'NONE', ( #34, #165, #44 ) ) ;
#191 = PRESENTATION_STYLE_ASSIGNMENT (( #106 ) ) ;
#192 = AXIS2_PLACEMENT_3D ( 'NONE', #50, #81, #174 ) ;
#193 = DIRECTION ( 'NONE',  ( 0.0000000000000000000, 0.0000000000000000000, -1.000000000000000000 ) ) ;
#194 = DIRECTION ( 'NONE',  ( 1.000000000000000000, -0.0000000000000000000, -0.0000000000000000000 ) ) ;
#195 = CARTESIAN_POINT ( 'NONE',  ( 0.0000000000000000000, 0.0000000000000000000, 0.0000000000000000000 ) ) ;
#196 = APPLICATION_CONTEXT ( 'automotive_design' ) ;
#197 = APPLICATION_CONTEXT ( 'automotive_design' ) ;
#198 = VECTOR ( 'NONE', #188, 1000.000000000000000 ) ;
#199 = AXIS2_PLACEMENT_3D ( 'NONE', #204, #134, #152 ) ;
#200 = AXIS2_PLACEMENT_3D ( 'NONE', #64, #169, #37 ) ;
#201 = CIRCLE ( 'NONE', #199, 12.50000000000000000 ) ;
#202 = ORIENTED_EDGE ( 'NONE', *, *, #143, .F. ) ;
#203 = VERTEX_POINT ( 'NONE', #105 ) ;
#204 = CARTESIAN_POINT ( 'NONE',  ( -9.099999999999999600, -1.114428587224091500E-015, 0.0000000000000000000 ) ) ;
#205 = DIRECTION ( 'NONE',  ( 1.000000000000000000, 1.224646799147353500E-016, -0.0000000000000000000 ) ) ;
#206 = AXIS2_PLACEMENT_3D ( 'NONE', #156, #176, #193 ) ;
#207 = CIRCLE ( 'NONE', #200, 8.149999999999998600 ) ;
#208 = CARTESIAN_POINT ( 'NONE',  ( 0.0000000000000000000, 0.0000000000000000000, 0.0000000000000000000 ) ) ;
#209 = DIRECTION ( 'NONE',  ( 0.0000000000000000000, 0.0000000000000000000, -1.000000000000000000 ) ) ;
#210 =( NAMED_UNIT ( * ) PLANE_ANGLE_UNIT ( ) SI_UNIT ( $, .RADIAN. ) );
#211 =( LENGTH_UNIT ( ) NAMED_UNIT ( * ) SI_UNIT ( .MILLI., .METRE. ) );
#212 = CIRCLE ( 'NONE', #146, 8.569714114251423700 ) ;
#213 = CONICAL_SURFACE ( 'NONE', #112, 8.149999999999996800, 1.029744258676653900 ) ;
#214 = AXIS2_PLACEMENT_3D ( 'NONE', #70, #171, #2 ) ;
#215 = CARTESIAN_POINT ( 'NONE',  ( -12.50000000000000000, 9.980871413050926000E-016, 8.149999999999996800 ) ) ;
#216 = ORIENTED_EDGE ( 'NONE', *, *, #60, .F. ) ;
#217 = AXIS2_PLACEMENT_3D ( 'NONE', #25, #102, #209 ) ;
#218 = CARTESIAN_POINT ( 'NONE',  ( -12.50000000000000000, 0.0000000000000000000, 0.0000000000000000000 ) ) ;
#219 = FACE_OUTER_BOUND ( 'NONE', #144, .T. ) ;
#220 = ORIENTED_EDGE ( 'NONE', *, *, #119, .T. ) ;
ENDSEC;
END-ISO-10303-21;
