ISO-10303-21;
HEADER;
FILE_DESCRIPTION (( 'STEP AP203' ),
    '1' );
FILE_NAME ('A6_90x00x13-S.STEP',
    '2023-03-20T09:11:56',
    ( '' ),
    ( '' ),
    'SwSTEP 2.0',
    'SolidWorks 2019',
    '' );
FILE_SCHEMA (( 'CONFIG_CONTROL_DESIGN' ));
ENDSEC;

DATA;
#1 = DIRECTION ( 'NONE',  ( 0.000000000000000000, -1.000000000000000000, 0.000000000000000000 ) ) ;
#2 = CARTESIAN_POINT ( 'NONE',  ( 0.000000000000000000, 11.71328888938270474, 43.00000000000000000 ) ) ;
#3 = EDGE_CURVE ( 'NONE', #265, #212, #105, .T. ) ;
#4 = EDGE_LOOP ( 'NONE', ( #188, #47, #337, #238 ) ) ;
#5 = CIRCLE ( 'NONE', #383, 45.00000000000000000 ) ;
#6 = CARTESIAN_POINT ( 'NONE',  ( 5.327621782819546702E-15, 12.71326666790119653, -43.00666651852345979 ) ) ;
#7 = CARTESIAN_POINT ( 'NONE',  ( 0.000000000000000000, -0.3000000000000016542, 0.000000000000000000 ) ) ;
#8 = EDGE_CURVE ( 'NONE', #346, #265, #197, .T. ) ;
#9 = CARTESIAN_POINT ( 'NONE',  ( 0.000000000000000000, -987.0000222219753141, 0.000000000000000000 ) ) ;
#10 = DIRECTION ( 'NONE',  ( -0.000000000000000000, 1.000000000000000000, -0.000000000000000000 ) ) ;
#11 = CIRCLE ( 'NONE', #261, 43.00666651852345979 ) ;
#12 = DIRECTION ( 'NONE',  ( -0.000000000000000000, 1.000000000000000000, -0.000000000000000000 ) ) ;
#13 = CC_DESIGN_PERSON_AND_ORGANIZATION_ASSIGNMENT ( #339, #375, ( #203 ) ) ;
#14 = PERSON_AND_ORGANIZATION ( #221, #88 ) ;
#15 = VERTEX_POINT ( 'NONE', #249 ) ;
#16 = DIRECTION ( 'NONE',  ( 1.224646799147353454E-16, 0.000000000000000000, -1.000000000000000000 ) ) ;
#17 = VERTEX_POINT ( 'NONE', #314 ) ;
#18 = CONICAL_SURFACE ( 'NONE', #132, 43.01333303704690536, 1.564129758891028343 ) ;
#19 = DIRECTION ( 'NONE',  ( 0.000000000000000000, 0.000000000000000000, -1.000000000000000000 ) ) ;
#20 = DIRECTION ( 'NONE',  ( 0.000000000000000000, 0.000000000000000000, 1.000000000000000000 ) ) ;
#21 = ORIENTED_EDGE ( 'NONE', *, *, #263, .T. ) ;
#22 = VERTEX_POINT ( 'NONE', #280 ) ;
#23 = VECTOR ( 'NONE', #40, 1000.000000000000114 ) ;
#24 = ADVANCED_FACE ( 'NONE', ( #30 ), #341, .T. ) ;
#25 = DATE_TIME_ROLE ( 'classification_date' ) ;
#26 = ORIENTED_EDGE ( 'NONE', *, *, #215, .F. ) ;
#27 = PERSON_AND_ORGANIZATION ( #221, #88 ) ;
#28 = DIRECTION ( 'NONE',  ( -0.000000000000000000, 1.000000000000000000, -0.000000000000000000 ) ) ;
#29 = DATE_AND_TIME ( #402, #101 ) ;
#30 = FACE_OUTER_BOUND ( 'NONE', #364, .T. ) ;
#31 = VECTOR ( 'NONE', #324, 1000.000000000000000 ) ;
#32 = CC_DESIGN_APPROVAL ( #303, ( #291 ) ) ;
#33 = DIRECTION ( 'NONE',  ( 0.000000000000000000, 0.000000000000000000, 1.000000000000000000 ) ) ;
#34 = EDGE_CURVE ( 'NONE', #284, #207, #228, .T. ) ;
#35 = DIRECTION ( 'NONE',  ( -0.000000000000000000, 1.000000000000000000, 0.000000000000000000 ) ) ;
#36 = CARTESIAN_POINT ( 'NONE',  ( 5.388445916248353619E-15, -0.3000000000000016542, -44.00000000000000000 ) ) ;
#37 = EDGE_CURVE ( 'NONE', #127, #346, #316, .T. ) ;
#38 = DIRECTION ( 'NONE',  ( 0.000000000000000000, -1.000000000000000000, 0.000000000000000000 ) ) ;
#39 = CC_DESIGN_SECURITY_CLASSIFICATION ( #276, ( #203 ) ) ;
#40 = DIRECTION ( 'NONE',  ( 0.000000000000000000, -0.006666518523456653640, -0.9999777785184910117 ) ) ;
#41 = DIRECTION ( 'NONE',  ( -0.000000000000000000, 1.000000000000000000, -0.000000000000000000 ) ) ;
#42 = CARTESIAN_POINT ( 'NONE',  ( 0.000000000000000000, 13.71324444641968832, 0.000000000000000000 ) ) ;
#43 = AXIS2_PLACEMENT_3D ( 'NONE', #353, #12, #172 ) ;
#44 =( GEOMETRIC_REPRESENTATION_CONTEXT ( 3 ) GLOBAL_UNCERTAINTY_ASSIGNED_CONTEXT ( ( #76 ) ) GLOBAL_UNIT_ASSIGNED_CONTEXT ( ( #209, #148, #242 ) ) REPRESENTATION_CONTEXT ( 'NONE', 'WORKASPACE' ) );
#45 = EDGE_CURVE ( 'NONE', #177, #265, #92, .T. ) ;
#46 = DIRECTION ( 'NONE',  ( 1.000000000000000000, 0.000000000000000000, 0.000000000000000000 ) ) ;
#47 = ORIENTED_EDGE ( 'NONE', *, *, #8, .F. ) ;
#48 = DIRECTION ( 'NONE',  ( 0.000000000000000000, 0.000000000000000000, 1.000000000000000000 ) ) ;
#49 = ORIENTED_EDGE ( 'NONE', *, *, #34, .F. ) ;
#50 = CC_DESIGN_DATE_AND_TIME_ASSIGNMENT ( #345, #150, ( #291 ) ) ;
#51 = DIRECTION ( 'NONE',  ( -0.000000000000000000, 1.000000000000000000, -0.000000000000000000 ) ) ;
#52 = ORIENTED_EDGE ( 'NONE', *, *, #169, .T. ) ;
#53 = AXIS2_PLACEMENT_3D ( 'NONE', #340, #281, #33 ) ;
#54 = ORIENTED_EDGE ( 'NONE', *, *, #359, .T. ) ;
#55 = EDGE_LOOP ( 'NONE', ( #395, #278, #143, #247 ) ) ;
#56 = ADVANCED_FACE ( 'NONE', ( #99 ), #58, .F. ) ;
#57 = CARTESIAN_POINT ( 'NONE',  ( 0.000000000000000000, 11.71328888938270474, 45.00000000000000000 ) ) ;
#58 = CONICAL_SURFACE ( 'NONE', #334, 149999.9999999989523, 1.564129758891028343 ) ;
#59 = COORDINATED_UNIVERSAL_TIME_OFFSET ( 1, 0, .AHEAD. ) ;
#60 = LINE ( 'NONE', #285, #94 ) ;
#61 = APPROVAL_DATE_TIME ( #279, #303 ) ;
#62 = VERTEX_POINT ( 'NONE', #98 ) ;
#63 = CALENDAR_DATE ( 2023, 20, 3 ) ;
#64 = EDGE_CURVE ( 'NONE', #179, #22, #274, .T. ) ;
#65 = CARTESIAN_POINT ( 'NONE',  ( 5.265981236333618470E-15, 11.71328888938270474, -43.00000000000000000 ) ) ;
#66 = AXIS2_PLACEMENT_3D ( 'NONE', #268, #237, #20 ) ;
#67 = CALENDAR_DATE ( 2023, 20, 3 ) ;
#68 = ORIENTED_EDGE ( 'NONE', *, *, #198, .T. ) ;
#69 = DIRECTION ( 'NONE',  ( 0.000000000000000000, 0.000000000000000000, 1.000000000000000000 ) ) ;
#70 = PRODUCT ( 'A6_90x00x13-S', 'A6_90x00x13-S', '', ( #170 ) ) ;
#71 = CC_DESIGN_PERSON_AND_ORGANIZATION_ASSIGNMENT ( #379, #154, ( #203 ) ) ;
#72 = DIRECTION ( 'NONE',  ( -0.000000000000000000, 1.000000000000000000, -0.000000000000000000 ) ) ;
#73 = CIRCLE ( 'NONE', #126, 43.01333303704690536 ) ;
#74 = DIRECTION ( 'NONE',  ( 0.000000000000000000, -0.006666518523456653640, -0.9999777785184910117 ) ) ;
#75 = CARTESIAN_POINT ( 'NONE',  ( 0.000000000000000000, -0.3000000000000016542, 44.00000000000000000 ) ) ;
#76 = UNCERTAINTY_MEASURE_WITH_UNIT (LENGTH_MEASURE( 1.000000000000000082E-05 ), #209, 'distance_accuracy_value', 'NONE');
#77 = CARTESIAN_POINT ( 'NONE',  ( 0.000000000000000000, 11.71328888938270474, 0.000000000000000000 ) ) ;
#78 = DIRECTION ( 'NONE',  ( -0.000000000000000000, 1.000000000000000000, -0.000000000000000000 ) ) ;
#79 = ORIENTED_EDGE ( 'NONE', *, *, #160, .F. ) ;
#80 = APPROVAL_PERSON_ORGANIZATION ( #128, #91, #308 ) ;
#81 = FACE_OUTER_BOUND ( 'NONE', #397, .T. ) ;
#82 = EDGE_LOOP ( 'NONE', ( #270, #151, #272, #300 ) ) ;
#83 = EDGE_CURVE ( 'NONE', #89, #62, #5, .T. ) ;
#84 = FACE_OUTER_BOUND ( 'NONE', #235, .T. ) ;
#85 = ORIENTED_EDGE ( 'NONE', *, *, #83, .F. ) ;
#86 = ORIENTED_EDGE ( 'NONE', *, *, #382, .T. ) ;
#87 = AXIS2_PLACEMENT_3D ( 'NONE', #65, #373, #124 ) ;
#88 = ORGANIZATION ( 'NEURÈENÝ', 'NEURÈENÝ', '' ) ;
#89 = VERTEX_POINT ( 'NONE', #57 ) ;
#90 = COORDINATED_UNIVERSAL_TIME_OFFSET ( 1, 0, .AHEAD. ) ;
#91 = APPROVAL ( #253, 'NEURÈENÝ' ) ;
#92 = LINE ( 'NONE', #186, #233 ) ;
#93 = CARTESIAN_POINT ( 'NONE',  ( 0.000000000000000000, 11.71328888938270474, 0.000000000000000000 ) ) ;
#94 = VECTOR ( 'NONE', #74, 1000.000000000000114 ) ;
#95 = LOCAL_TIME ( 10, 11, 56.00000000000000000, #305 ) ;
#96 = ORIENTED_EDGE ( 'NONE', *, *, #283, .F. ) ;
#97 = EDGE_CURVE ( 'NONE', #346, #15, #361, .T. ) ;
#98 = CARTESIAN_POINT ( 'NONE',  ( 5.510910596163089556E-15, 11.71328888938270474, -45.00000000000000000 ) ) ;
#99 = FACE_OUTER_BOUND ( 'NONE', #171, .T. ) ;
#100 = AXIS2_PLACEMENT_3D ( 'NONE', #217, #214, #343 ) ;
#101 = LOCAL_TIME ( 10, 11, 56.00000000000000000, #90 ) ;
#102 = ADVANCED_FACE ( 'NONE', ( #405, #254 ), #381, .F. ) ;
#103 = CARTESIAN_POINT ( 'NONE',  ( 5.388445916248353619E-15, 11.71328888938270474, -44.00000000000000000 ) ) ;
#104 = DIRECTION ( 'NONE',  ( 0.000000000000000000, 0.000000000000000000, -1.000000000000000000 ) ) ;
#105 = CIRCLE ( 'NONE', #87, 1.000000000000000888 ) ;
#106 = CIRCLE ( 'NONE', #157, 45.00000000000000000 ) ;
#107 = FACE_OUTER_BOUND ( 'NONE', #147, .T. ) ;
#108 = CC_DESIGN_PERSON_AND_ORGANIZATION_ASSIGNMENT ( #14, #392, ( #70 ) ) ;
#109 = DIRECTION ( 'NONE',  ( 0.000000000000000000, 0.000000000000000000, 1.000000000000000000 ) ) ;
#110 = APPLICATION_PROTOCOL_DEFINITION ( 'international standard', 'config_control_design', 1994, #338 ) ;
#111 = AXIS2_PLACEMENT_3D ( 'NONE', #2, #129, #307 ) ;
#112 = PRODUCT_RELATED_PRODUCT_CATEGORY ( 'detail', '', ( #70 ) ) ;
#113 = EDGE_LOOP ( 'NONE', ( #155, #52 ) ) ;
#114 = FACE_OUTER_BOUND ( 'NONE', #173, .T. ) ;
#115 = EDGE_LOOP ( 'NONE', ( #349, #297, #26 ) ) ;
#116 = CARTESIAN_POINT ( 'NONE',  ( 0.000000000000000000, 27.36943620178041670, 0.000000000000000000 ) ) ;
#117 = EDGE_LOOP ( 'NONE', ( #244, #302, #335 ) ) ;
#118 = ORIENTED_EDGE ( 'NONE', *, *, #120, .F. ) ;
#119 = TOROIDAL_SURFACE ( 'NONE', #350, 43.00000000000000000, 2.000000000000001776 ) ;
#120 = EDGE_CURVE ( 'NONE', #17, #212, #60, .T. ) ;
#121 = APPROVAL_STATUS ( 'not_yet_approved' ) ;
#122 = LINE ( 'NONE', #390, #31 ) ;
#123 = APPROVAL_STATUS ( 'not_yet_approved' ) ;
#124 = DIRECTION ( 'NONE',  ( 1.224646799147349509E-16, 0.000000000000000000, -1.000000000000000000 ) ) ;
#125 = EDGE_CURVE ( 'NONE', #265, #346, #136, .T. ) ;
#126 = AXIS2_PLACEMENT_3D ( 'NONE', #290, #41, #287 ) ;
#127 = VERTEX_POINT ( 'NONE', #75 ) ;
#128 = PERSON_AND_ORGANIZATION ( #221, #88 ) ;
#129 = DIRECTION ( 'NONE',  ( -1.000000000000000000, 0.000000000000000000, 0.000000000000000000 ) ) ;
#130 = DIRECTION ( 'NONE',  ( -1.000000000000000000, 0.000000000000000000, 0.000000000000000000 ) ) ;
#131 = AXIS2_PLACEMENT_3D ( 'NONE', #77, #227, #109 ) ;
#132 = AXIS2_PLACEMENT_3D ( 'NONE', #363, #331, #19 ) ;
#133 = DIRECTION ( 'NONE',  ( -0.000000000000000000, 1.000000000000000000, -0.000000000000000000 ) ) ;
#134 = DIRECTION ( 'NONE',  ( 0.000000000000000000, 0.000000000000000000, 1.000000000000000000 ) ) ;
#135 = ADVANCED_FACE ( 'NONE', ( #260 ), #333, .F. ) ;
#136 = CIRCLE ( 'NONE', #298, 44.00000000000000000 ) ;
#137 = CARTESIAN_POINT ( 'NONE',  ( 0.000000000000000000, 12.71326666790119653, 0.000000000000000000 ) ) ;
#138 = LINE ( 'NONE', #394, #219 ) ;
#139 = ADVANCED_FACE ( 'NONE', ( #163 ), #191, .F. ) ;
#140 = ORIENTED_EDGE ( 'NONE', *, *, #263, .F. ) ;
#141 = DIRECTION ( 'NONE',  ( 0.000000000000000000, 0.000000000000000000, 1.000000000000000000 ) ) ;
#142 = CIRCLE ( 'NONE', #374, 44.00000000000000000 ) ;
#143 = ORIENTED_EDGE ( 'NONE', *, *, #283, .T. ) ;
#144 = CIRCLE ( 'NONE', #243, 44.00000000000000000 ) ;
#145 = DESIGN_CONTEXT ( 'detailed design', #338, 'design' ) ;
#146 = LINE ( 'NONE', #211, #166 ) ;
#147 = EDGE_LOOP ( 'NONE', ( #240, #295, #332, #378 ) ) ;
#148 =( NAMED_UNIT ( * ) PLANE_ANGLE_UNIT ( ) SI_UNIT ( $, .RADIAN. ) );
#149 = EDGE_LOOP ( 'NONE', ( #367, #273 ) ) ;
#150 = DATE_TIME_ROLE ( 'creation_date' ) ;
#151 = ORIENTED_EDGE ( 'NONE', *, *, #404, .F. ) ;
#152 = CALENDAR_DATE ( 2023, 20, 3 ) ;
#153 = CARTESIAN_POINT ( 'NONE',  ( 0.000000000000000000, 11.71328888938270474, 0.000000000000000000 ) ) ;
#154 = PERSON_AND_ORGANIZATION_ROLE ( 'design_supplier' ) ;
#155 = ORIENTED_EDGE ( 'NONE', *, *, #404, .T. ) ;
#156 = DIRECTION ( 'NONE',  ( -0.000000000000000000, 1.000000000000000000, -0.000000000000000000 ) ) ;
#157 = AXIS2_PLACEMENT_3D ( 'NONE', #294, #72, #134 ) ;
#158 = DIRECTION ( 'NONE',  ( 0.000000000000000000, 0.000000000000000000, 1.000000000000000000 ) ) ;
#159 = DIRECTION ( 'NONE',  ( 0.000000000000000000, 0.000000000000000000, 1.000000000000000000 ) ) ;
#160 = EDGE_CURVE ( 'NONE', #179, #89, #255, .T. ) ;
#161 = FACE_OUTER_BOUND ( 'NONE', #55, .T. ) ;
#162 = CC_DESIGN_APPROVAL ( #310, ( #276 ) ) ;
#163 = FACE_OUTER_BOUND ( 'NONE', #4, .T. ) ;
#164 = CARTESIAN_POINT ( 'NONE',  ( 0.000000000000000000, 11.71328888938270474, 43.00000000000000000 ) ) ;
#165 = CARTESIAN_POINT ( 'NONE',  ( 0.000000000000000000, 27.36943620178041670, 45.00000000000000000 ) ) ;
#166 = VECTOR ( 'NONE', #365, 1000.000000000000114 ) ;
#167 = APPROVAL_PERSON_ORGANIZATION ( #185, #303, #372 ) ;
#168 = CARTESIAN_POINT ( 'NONE',  ( 0.000000000000000000, 27.36943620178041670, 0.000000000000000000 ) ) ;
#169 = EDGE_CURVE ( 'NONE', #177, #127, #142, .T. ) ;
#170 = MECHANICAL_CONTEXT ( 'NONE', #236, 'mechanical' ) ;
#171 = EDGE_LOOP ( 'NONE', ( #118, #86, #96 ) ) ;
#172 = DIRECTION ( 'NONE',  ( 0.000000000000000000, 0.000000000000000000, 1.000000000000000000 ) ) ;
#173 = EDGE_LOOP ( 'NONE', ( #360, #21, #85, #79 ) ) ;
#174 = VERTEX_POINT ( 'NONE', #199 ) ;
#175 = CARTESIAN_POINT ( 'NONE',  ( 5.265981236333618470E-15, 11.71328888938270474, -43.00000000000000000 ) ) ;
#176 = ADVANCED_FACE ( 'NONE', ( #384 ), #202, .T. ) ;
#177 = VERTEX_POINT ( 'NONE', #36 ) ;
#178 = CARTESIAN_POINT ( 'NONE',  ( 0.000000000000000000, 11.71328888938270474, 0.000000000000000000 ) ) ;
#179 = VERTEX_POINT ( 'NONE', #321 ) ;
#180 = SHAPE_DEFINITION_REPRESENTATION ( #348, #347 ) ;
#181 = DIRECTION ( 'NONE',  ( -0.000000000000000000, 1.000000000000000000, -0.000000000000000000 ) ) ;
#182 = AXIS2_PLACEMENT_3D ( 'NONE', #229, #230, #201 ) ;
#183 = AXIS2_PLACEMENT_3D ( 'NONE', #396, #206, #366 ) ;
#184 = CC_DESIGN_PERSON_AND_ORGANIZATION_ASSIGNMENT ( #216, #342, ( #291 ) ) ;
#185 = PERSON_AND_ORGANIZATION ( #221, #88 ) ;
#186 = CARTESIAN_POINT ( 'NONE',  ( 5.388445916248353619E-15, 27.36943620178041670, -44.00000000000000000 ) ) ;
#187 = COORDINATED_UNIVERSAL_TIME_OFFSET ( 1, 0, .AHEAD. ) ;
#188 = ORIENTED_EDGE ( 'NONE', *, *, #3, .F. ) ;
#189 = PERSON_AND_ORGANIZATION_ROLE ( 'classification_officer' ) ;
#190 = DIRECTION ( 'NONE',  ( 0.000000000000000000, 0.000000000000000000, 1.000000000000000000 ) ) ;
#191 = TOROIDAL_SURFACE ( 'NONE', #182, 43.00000000000000000, 1.000000000000000000 ) ;
#192 = LOCAL_TIME ( 10, 11, 56.00000000000000000, #59 ) ;
#193 = DIRECTION ( 'NONE',  ( -0.000000000000000000, 1.000000000000000000, -0.000000000000000000 ) ) ;
#194 = ADVANCED_FACE ( 'NONE', ( #161 ), #282, .F. ) ;
#195 = DIRECTION ( 'NONE',  ( -0.000000000000000000, 1.000000000000000000, -0.000000000000000000 ) ) ;
#196 = DIRECTION ( 'NONE',  ( 0.000000000000000000, 0.000000000000000000, 1.000000000000000000 ) ) ;
#197 = CIRCLE ( 'NONE', #304, 44.00000000000000000 ) ;
#198 = EDGE_CURVE ( 'NONE', #207, #284, #73, .T. ) ;
#199 = CARTESIAN_POINT ( 'NONE',  ( 1.637283725091513162E-15, 14.00000000000000000, 0.000000000000000000 ) ) ;
#200 = CARTESIAN_POINT ( 'NONE',  ( 0.000000000000000000, 13.71324444641968832, -43.01333303704690536 ) ) ;
#201 = DIRECTION ( 'NONE',  ( 0.000000000000000000, 0.000000000000000000, 1.000000000000000000 ) ) ;
#202 = CONICAL_SURFACE ( 'NONE', #250, 43.01333303704690536, 1.564129758891028343 ) ;
#203 = PRODUCT_DEFINITION_FORMATION_WITH_SPECIFIED_SOURCE ( 'LIBOVOLNÝ', '', #70, .NOT_KNOWN. ) ;
#204 = ORIENTED_EDGE ( 'NONE', *, *, #398, .F. ) ;
#205 = ORIENTED_EDGE ( 'NONE', *, *, #83, .T. ) ;
#206 = DIRECTION ( 'NONE',  ( -0.000000000000000000, 1.000000000000000000, -0.000000000000000000 ) ) ;
#207 = VERTEX_POINT ( 'NONE', #200 ) ;
#208 = CIRCLE ( 'NONE', #313, 2.000000000000001776 ) ;
#209 =( LENGTH_UNIT ( ) NAMED_UNIT ( * ) SI_UNIT ( .MILLI., .METRE. ) );
#210 = EDGE_LOOP ( 'NONE', ( #393, #403, #68 ) ) ;
#211 = CARTESIAN_POINT ( 'NONE',  ( 5.267614062447859525E-15, 13.71324444641968832, 43.01333303704690536 ) ) ;
#212 = VERTEX_POINT ( 'NONE', #6 ) ;
#213 = APPROVAL_ROLE ( '' ) ;
#214 = DIRECTION ( 'NONE',  ( -0.000000000000000000, 1.000000000000000000, -0.000000000000000000 ) ) ;
#215 = EDGE_CURVE ( 'NONE', #15, #212, #355, .T. ) ;
#216 = PERSON_AND_ORGANIZATION ( #221, #88 ) ;
#217 = CARTESIAN_POINT ( 'NONE',  ( 0.000000000000000000, -0.3000000000000016542, 0.000000000000000000 ) ) ;
#218 = AXIS2_PLACEMENT_3D ( 'NONE', #223, #35, #159 ) ;
#219 = VECTOR ( 'NONE', #301, 1000.000000000000114 ) ;
#220 = ORIENTED_EDGE ( 'NONE', *, *, #258, .T. ) ;
#221 = PERSON ( 'NEURÈENÝ', 'NEURÈENÝ', 'NEURÈENÝ', ('NEURÈENÝ'), ('NEURÈENÝ'), ('NEURÈENÝ') ) ;
#222 = CARTESIAN_POINT ( 'NONE',  ( 0.000000000000000000, 11.71328888938270474, 0.000000000000000000 ) ) ;
#223 = CARTESIAN_POINT ( 'NONE',  ( 45.00000000000000000, -0.3000000000000007661, 0.000000000000000000 ) ) ;
#224 = CIRCLE ( 'NONE', #66, 45.00000000000000000 ) ;
#225 = DIRECTION ( 'NONE',  ( -0.000000000000000000, 1.000000000000000000, -0.000000000000000000 ) ) ;
#226 = CYLINDRICAL_SURFACE ( 'NONE', #43, 44.00000000000000000 ) ;
#227 = DIRECTION ( 'NONE',  ( -0.000000000000000000, 1.000000000000000000, -0.000000000000000000 ) ) ;
#228 = CIRCLE ( 'NONE', #53, 43.01333303704690536 ) ;
#229 = CARTESIAN_POINT ( 'NONE',  ( 0.000000000000000000, 11.71328888938270474, 0.000000000000000000 ) ) ;
#230 = DIRECTION ( 'NONE',  ( -0.000000000000000000, 1.000000000000000000, -0.000000000000000000 ) ) ;
#231 = CARTESIAN_POINT ( 'NONE',  ( 0.000000000000000000, -0.3000000000000016542, 0.000000000000000000 ) ) ;
#232 = EDGE_CURVE ( 'NONE', #174, #207, #257, .T. ) ;
#233 = VECTOR ( 'NONE', #311, 1000.000000000000000 ) ;
#234 = DIRECTION ( 'NONE',  ( 0.000000000000000000, 0.000000000000000000, 1.000000000000000000 ) ) ;
#235 = EDGE_LOOP ( 'NONE', ( #205, #54, #49, #344 ) ) ;
#236 = APPLICATION_CONTEXT ( 'configuration controlled 3d designs of mechanical parts and assemblies' ) ;
#237 = DIRECTION ( 'NONE',  ( -0.000000000000000000, 1.000000000000000000, -0.000000000000000000 ) ) ;
#238 = ORIENTED_EDGE ( 'NONE', *, *, #215, .T. ) ;
#239 = DIRECTION ( 'NONE',  ( -0.000000000000000000, 1.000000000000000000, -0.000000000000000000 ) ) ;
#240 = ORIENTED_EDGE ( 'NONE', *, *, #169, .F. ) ;
#241 = AXIS2_PLACEMENT_3D ( 'NONE', #137, #10, #288 ) ;
#242 =( NAMED_UNIT ( * ) SI_UNIT ( $, .STERADIAN. ) SOLID_ANGLE_UNIT ( ) );
#243 = AXIS2_PLACEMENT_3D ( 'NONE', #231, #239, #141 ) ;
#244 = ORIENTED_EDGE ( 'NONE', *, *, #232, .F. ) ;
#245 = CALENDAR_DATE ( 2023, 20, 3 ) ;
#246 = EDGE_CURVE ( 'NONE', #89, #284, #208, .T. ) ;
#247 = ORIENTED_EDGE ( 'NONE', *, *, #97, .F. ) ;
#248 = APPROVAL_DATE_TIME ( #406, #310 ) ;
#249 = CARTESIAN_POINT ( 'NONE',  ( 0.000000000000000000, 12.71326666790119653, 43.00666651852345979 ) ) ;
#250 = AXIS2_PLACEMENT_3D ( 'NONE', #42, #357, #104 ) ;
#251 = DATE_AND_TIME ( #245, #192 ) ;
#252 = DIRECTION ( 'NONE',  ( 0.000000000000000000, 0.000000000000000000, -1.000000000000000000 ) ) ;
#253 = APPROVAL_STATUS ( 'not_yet_approved' ) ;
#254 = FACE_BOUND ( 'NONE', #113, .T. ) ;
#255 = LINE ( 'NONE', #165, #319 ) ;
#256 = AXIS2_PLACEMENT_3D ( 'NONE', #9, #38, #354 ) ;
#257 = LINE ( 'NONE', #351, #23 ) ;
#258 = EDGE_CURVE ( 'NONE', #22, #179, #106, .T. ) ;
#259 = DIRECTION ( 'NONE',  ( 0.000000000000000000, 0.000000000000000000, 1.000000000000000000 ) ) ;
#260 = FACE_OUTER_BOUND ( 'NONE', #115, .T. ) ;
#261 = AXIS2_PLACEMENT_3D ( 'NONE', #322, #317, #196 ) ;
#262 = DIRECTION ( 'NONE',  ( 0.000000000000000000, 0.000000000000000000, 1.000000000000000000 ) ) ;
#263 = EDGE_CURVE ( 'NONE', #22, #62, #122, .T. ) ;
#264 = DIRECTION ( 'NONE',  ( 1.000000000000000000, 0.000000000000000000, 1.224646799147353207E-16 ) ) ;
#265 = VERTEX_POINT ( 'NONE', #103 ) ;
#266 = VECTOR ( 'NONE', #156, 1000.000000000000000 ) ;
#267 = CIRCLE ( 'NONE', #362, 2.000000000000001776 ) ;
#268 = CARTESIAN_POINT ( 'NONE',  ( 0.000000000000000000, 11.71328888938270474, 0.000000000000000000 ) ) ;
#269 = ADVANCED_FACE ( 'NONE', ( #107 ), #356, .F. ) ;
#270 = ORIENTED_EDGE ( 'NONE', *, *, #45, .F. ) ;
#271 = DIRECTION ( 'NONE',  ( 0.000000000000000000, 0.000000000000000000, 1.000000000000000000 ) ) ;
#272 = ORIENTED_EDGE ( 'NONE', *, *, #37, .T. ) ;
#273 = ORIENTED_EDGE ( 'NONE', *, *, #258, .F. ) ;
#274 = CIRCLE ( 'NONE', #100, 45.00000000000000000 ) ;
#275 = APPROVAL_DATE_TIME ( #251, #91 ) ;
#276 = SECURITY_CLASSIFICATION ( '', '', #370 ) ;
#277 = ORIENTED_EDGE ( 'NONE', *, *, #398, .T. ) ;
#278 = ORIENTED_EDGE ( 'NONE', *, *, #3, .T. ) ;
#279 = DATE_AND_TIME ( #67, #306 ) ;
#280 = CARTESIAN_POINT ( 'NONE',  ( 5.510910596163089556E-15, -0.3000000000000016542, -45.00000000000000000 ) ) ;
#281 = DIRECTION ( 'NONE',  ( -0.000000000000000000, 1.000000000000000000, -0.000000000000000000 ) ) ;
#282 = TOROIDAL_SURFACE ( 'NONE', #131, 43.00000000000000000, 1.000000000000000000 ) ;
#283 = EDGE_CURVE ( 'NONE', #212, #15, #11, .T. ) ;
#284 = VERTEX_POINT ( 'NONE', #386 ) ;
#285 = CARTESIAN_POINT ( 'NONE',  ( 0.000000000000000000, 12.99997777802468590, -8.470329472543003391E-19 ) ) ;
#286 = ADVANCED_FACE ( 'NONE', ( #385 ), #226, .F. ) ;
#287 = DIRECTION ( 'NONE',  ( 0.000000000000000000, 0.000000000000000000, 1.000000000000000000 ) ) ;
#288 = DIRECTION ( 'NONE',  ( 0.000000000000000000, 0.000000000000000000, 1.000000000000000000 ) ) ;
#289 = DIRECTION ( 'NONE',  ( 0.000000000000000000, 0.000000000000000000, 1.000000000000000000 ) ) ;
#290 = CARTESIAN_POINT ( 'NONE',  ( 0.000000000000000000, 13.71324444641968832, 0.000000000000000000 ) ) ;
#291 = PRODUCT_DEFINITION ( 'NEZNÁMÝ', '', #203, #145 ) ;
#292 = AXIS2_PLACEMENT_3D ( 'NONE', #168, #225, #259 ) ;
#293 = AXIS2_PLACEMENT_3D ( 'NONE', #326, #234, #46 ) ;
#294 = CARTESIAN_POINT ( 'NONE',  ( 0.000000000000000000, -0.3000000000000016542, 0.000000000000000000 ) ) ;
#295 = ORIENTED_EDGE ( 'NONE', *, *, #45, .T. ) ;
#296 = FACE_OUTER_BOUND ( 'NONE', #210, .T. ) ;
#297 = ORIENTED_EDGE ( 'NONE', *, *, #120, .T. ) ;
#298 = AXIS2_PLACEMENT_3D ( 'NONE', #318, #133, #289 ) ;
#299 = CARTESIAN_POINT ( 'NONE',  ( 0.000000000000000000, 11.71328888938270474, 44.00000000000000000 ) ) ;
#300 = ORIENTED_EDGE ( 'NONE', *, *, #8, .T. ) ;
#301 = DIRECTION ( 'NONE',  ( 1.224619585681150916E-16, -0.006666518523456653640, 0.9999777785184910117 ) ) ;
#302 = ORIENTED_EDGE ( 'NONE', *, *, #323, .T. ) ;
#303 = APPROVAL ( #121, 'NEURÈENÝ' ) ;
#304 = AXIS2_PLACEMENT_3D ( 'NONE', #93, #193, #190 ) ;
#305 = COORDINATED_UNIVERSAL_TIME_OFFSET ( 1, 0, .AHEAD. ) ;
#306 = LOCAL_TIME ( 10, 11, 56.00000000000000000, #187 ) ;
#307 = DIRECTION ( 'NONE',  ( 0.000000000000000000, 0.000000000000000000, 1.000000000000000000 ) ) ;
#308 = APPROVAL_ROLE ( '' ) ;
#309 = ORIENTED_EDGE ( 'NONE', *, *, #160, .T. ) ;
#310 = APPROVAL ( #123, 'NEURÈENÝ' ) ;
#311 = DIRECTION ( 'NONE',  ( -0.000000000000000000, 1.000000000000000000, -0.000000000000000000 ) ) ;
#312 = PERSON_AND_ORGANIZATION ( #221, #88 ) ;
#313 = AXIS2_PLACEMENT_3D ( 'NONE', #164, #130, #262 ) ;
#314 = CARTESIAN_POINT ( 'NONE',  ( -8.470329472543003391E-19, 12.99997777802468590, 0.000000000000000000 ) ) ;
#315 = LOCAL_TIME ( 10, 11, 56.00000000000000000, #377 ) ;
#316 = LINE ( 'NONE', #376, #266 ) ;
#317 = DIRECTION ( 'NONE',  ( -0.000000000000000000, 1.000000000000000000, -0.000000000000000000 ) ) ;
#318 = CARTESIAN_POINT ( 'NONE',  ( 0.000000000000000000, 11.71328888938270474, 0.000000000000000000 ) ) ;
#319 = VECTOR ( 'NONE', #195, 1000.000000000000000 ) ;
#320 = AXIS2_PLACEMENT_3D ( 'NONE', #116, #78, #48 ) ;
#321 = CARTESIAN_POINT ( 'NONE',  ( 0.000000000000000000, -0.3000000000000016542, 45.00000000000000000 ) ) ;
#322 = CARTESIAN_POINT ( 'NONE',  ( 0.000000000000000000, 12.71326666790119653, 0.000000000000000000 ) ) ;
#323 = EDGE_CURVE ( 'NONE', #174, #284, #146, .T. ) ;
#324 = DIRECTION ( 'NONE',  ( -0.000000000000000000, 1.000000000000000000, -0.000000000000000000 ) ) ;
#325 = APPROVAL_PERSON_ORGANIZATION ( #27, #310, #213 ) ;
#326 = CARTESIAN_POINT ( 'NONE',  ( 0.000000000000000000, 0.000000000000000000, 0.000000000000000000 ) ) ;
#327 = ORIENTED_EDGE ( 'NONE', *, *, #359, .F. ) ;
#328 = CC_DESIGN_PERSON_AND_ORGANIZATION_ASSIGNMENT ( #312, #189, ( #276 ) ) ;
#329 = CYLINDRICAL_SURFACE ( 'NONE', #183, 45.00000000000000000 ) ;
#330 = ORIENTED_EDGE ( 'NONE', *, *, #198, .F. ) ;
#331 = DIRECTION ( 'NONE',  ( 0.000000000000000000, -1.000000000000000000, 0.000000000000000000 ) ) ;
#332 = ORIENTED_EDGE ( 'NONE', *, *, #125, .T. ) ;
#333 = CONICAL_SURFACE ( 'NONE', #256, 149999.9999999989523, 1.564129758891028343 ) ;
#334 = AXIS2_PLACEMENT_3D ( 'NONE', #407, #1, #252 ) ;
#335 = ORIENTED_EDGE ( 'NONE', *, *, #34, .T. ) ;
#336 = ADVANCED_FACE ( 'NONE', ( #84 ), #119, .T. ) ;
#337 = ORIENTED_EDGE ( 'NONE', *, *, #97, .T. ) ;
#338 = APPLICATION_CONTEXT ( 'configuration controlled 3d designs of mechanical parts and assemblies' ) ;
#339 = PERSON_AND_ORGANIZATION ( #221, #88 ) ;
#340 = CARTESIAN_POINT ( 'NONE',  ( 0.000000000000000000, 13.71324444641968832, 0.000000000000000000 ) ) ;
#341 = TOROIDAL_SURFACE ( 'NONE', #389, 43.00000000000000000, 2.000000000000001776 ) ;
#342 = PERSON_AND_ORGANIZATION_ROLE ( 'creator' ) ;
#343 = DIRECTION ( 'NONE',  ( 0.000000000000000000, 0.000000000000000000, 1.000000000000000000 ) ) ;
#344 = ORIENTED_EDGE ( 'NONE', *, *, #246, .F. ) ;
#345 = DATE_AND_TIME ( #63, #95 ) ;
#346 = VERTEX_POINT ( 'NONE', #299 ) ;
#347 = ADVANCED_BREP_SHAPE_REPRESENTATION ( 'A6_90x00x13-S', ( #380, #293 ), #44 ) ;
#348 = PRODUCT_DEFINITION_SHAPE ( 'NONE', 'NONE',  #291 ) ;
#349 = ORIENTED_EDGE ( 'NONE', *, *, #382, .F. ) ;
#350 = AXIS2_PLACEMENT_3D ( 'NONE', #178, #51, #271 ) ;
#351 = CARTESIAN_POINT ( 'NONE',  ( 0.000000000000000000, 13.71324444641968832, -43.01333303704690536 ) ) ;
#352 = ADVANCED_FACE ( 'NONE', ( #296 ), #18, .T. ) ;
#353 = CARTESIAN_POINT ( 'NONE',  ( 0.000000000000000000, 27.36943620178041670, 0.000000000000000000 ) ) ;
#354 = DIRECTION ( 'NONE',  ( 0.000000000000000000, 0.000000000000000000, -1.000000000000000000 ) ) ;
#355 = CIRCLE ( 'NONE', #241, 43.00666651852345979 ) ;
#356 = CYLINDRICAL_SURFACE ( 'NONE', #292, 44.00000000000000000 ) ;
#357 = DIRECTION ( 'NONE',  ( 0.000000000000000000, -1.000000000000000000, 0.000000000000000000 ) ) ;
#358 = APPLICATION_PROTOCOL_DEFINITION ( 'international standard', 'config_control_design', 1994, #236 ) ;
#359 = EDGE_CURVE ( 'NONE', #62, #207, #267, .T. ) ;
#360 = ORIENTED_EDGE ( 'NONE', *, *, #64, .T. ) ;
#361 = CIRCLE ( 'NONE', #111, 1.000000000000000888 ) ;
#362 = AXIS2_PLACEMENT_3D ( 'NONE', #175, #264, #16 ) ;
#363 = CARTESIAN_POINT ( 'NONE',  ( 0.000000000000000000, 13.71324444641968832, 0.000000000000000000 ) ) ;
#364 = EDGE_LOOP ( 'NONE', ( #327, #277, #369, #330 ) ) ;
#365 = DIRECTION ( 'NONE',  ( 1.224619585681150916E-16, -0.006666518523456653640, 0.9999777785184910117 ) ) ;
#366 = DIRECTION ( 'NONE',  ( 0.000000000000000000, 0.000000000000000000, 1.000000000000000000 ) ) ;
#367 = ORIENTED_EDGE ( 'NONE', *, *, #64, .F. ) ;
#368 = ADVANCED_FACE ( 'NONE', ( #81 ), #329, .T. ) ;
#369 = ORIENTED_EDGE ( 'NONE', *, *, #246, .T. ) ;
#370 = SECURITY_CLASSIFICATION_LEVEL ( 'unclassified' ) ;
#371 = DIRECTION ( 'NONE',  ( 0.000000000000000000, 0.000000000000000000, 1.000000000000000000 ) ) ;
#372 = APPROVAL_ROLE ( '' ) ;
#373 = DIRECTION ( 'NONE',  ( 1.000000000000000000, 0.000000000000000000, 1.224646799147353207E-16 ) ) ;
#374 = AXIS2_PLACEMENT_3D ( 'NONE', #7, #388, #69 ) ;
#375 = PERSON_AND_ORGANIZATION_ROLE ( 'creator' ) ;
#376 = CARTESIAN_POINT ( 'NONE',  ( 0.000000000000000000, 27.36943620178041670, 44.00000000000000000 ) ) ;
#377 = COORDINATED_UNIVERSAL_TIME_OFFSET ( 1, 0, .AHEAD. ) ;
#378 = ORIENTED_EDGE ( 'NONE', *, *, #37, .F. ) ;
#379 = PERSON_AND_ORGANIZATION ( #221, #88 ) ;
#380 = MANIFOLD_SOLID_BREP ( 'Rotovat1', #400 ) ;
#381 = PLANE ( 'NONE',  #218 ) ;
#382 = EDGE_CURVE ( 'NONE', #17, #15, #138, .T. ) ;
#383 = AXIS2_PLACEMENT_3D ( 'NONE', #222, #28, #158 ) ;
#384 = FACE_OUTER_BOUND ( 'NONE', #117, .T. ) ;
#385 = FACE_OUTER_BOUND ( 'NONE', #82, .T. ) ;
#386 = CARTESIAN_POINT ( 'NONE',  ( 5.267614062447859525E-15, 13.71324444641968832, 43.01333303704690536 ) ) ;
#387 = CC_DESIGN_DATE_AND_TIME_ASSIGNMENT ( #29, #25, ( #276 ) ) ;
#388 = DIRECTION ( 'NONE',  ( -0.000000000000000000, 1.000000000000000000, -0.000000000000000000 ) ) ;
#389 = AXIS2_PLACEMENT_3D ( 'NONE', #153, #181, #371 ) ;
#390 = CARTESIAN_POINT ( 'NONE',  ( 5.510910596163089556E-15, 27.36943620178041670, -45.00000000000000000 ) ) ;
#391 = ADVANCED_FACE ( 'NONE', ( #114 ), #399, .T. ) ;
#392 = PERSON_AND_ORGANIZATION_ROLE ( 'design_owner' ) ;
#393 = ORIENTED_EDGE ( 'NONE', *, *, #323, .F. ) ;
#394 = CARTESIAN_POINT ( 'NONE',  ( 1.037316187627327806E-34, 12.99997777802468590, 8.470329472543003391E-19 ) ) ;
#395 = ORIENTED_EDGE ( 'NONE', *, *, #125, .F. ) ;
#396 = CARTESIAN_POINT ( 'NONE',  ( 0.000000000000000000, 27.36943620178041670, 0.000000000000000000 ) ) ;
#397 = EDGE_LOOP ( 'NONE', ( #140, #220, #309, #204 ) ) ;
#398 = EDGE_CURVE ( 'NONE', #62, #89, #224, .T. ) ;
#399 = CYLINDRICAL_SURFACE ( 'NONE', #320, 45.00000000000000000 ) ;
#400 = CLOSED_SHELL ( 'NONE', ( #56, #194, #269, #391, #336, #176, #352, #24, #368, #102, #286, #139, #135 ) ) ;
#401 = CC_DESIGN_APPROVAL ( #91, ( #203 ) ) ;
#402 = CALENDAR_DATE ( 2023, 20, 3 ) ;
#403 = ORIENTED_EDGE ( 'NONE', *, *, #232, .T. ) ;
#404 = EDGE_CURVE ( 'NONE', #127, #177, #144, .T. ) ;
#405 = FACE_OUTER_BOUND ( 'NONE', #149, .T. ) ;
#406 = DATE_AND_TIME ( #152, #315 ) ;
#407 = CARTESIAN_POINT ( 'NONE',  ( 0.000000000000000000, -987.0000222219753141, 0.000000000000000000 ) ) ;
ENDSEC;
END-ISO-10303-21;
