ISO-10303-21;
HEADER;
FILE_DESCRIPTION (( 'STEP AP214' ),
    '1' );
FILE_NAME ('A6_85x00x6-S.STEP',
    '2022-12-08T10:09:04',
    ( '' ),
    ( '' ),
    'SwSTEP 2.0',
    'SolidWorks 2019',
    '' );
FILE_SCHEMA (( 'AUTOMOTIVE_DESIGN' ));
ENDSEC;

DATA;
#1 = DIRECTION ( 'NONE',  ( -1.000000000000000000, 0.000000000000000000, 0.000000000000000000 ) ) ;
#2 = VERTEX_POINT ( 'NONE', #114 ) ;
#3 = ORIENTED_EDGE ( 'NONE', *, *, #262, .F. ) ;
#4 = ORIENTED_EDGE ( 'NONE', *, *, #61, .T. ) ;
#5 = DIRECTION ( 'NONE',  ( -1.000000000000000000, 0.000000000000000000, 0.000000000000000000 ) ) ;
#6 = LINE ( 'NONE', #138, #293 ) ;
#7 = STYLED_ITEM ( 'NONE', ( #162 ), #364 ) ;
#8 = CARTESIAN_POINT ( 'NONE',  ( 0.000000000000000000, 32.25000000000000000, 0.000000000000000000 ) ) ;
#9 = DIRECTION ( 'NONE',  ( 1.000000000000000000, 0.000000000000000000, 0.000000000000000000 ) ) ;
#10 = MECHANICAL_DESIGN_GEOMETRIC_PRESENTATION_REPRESENTATION (  '', ( #7 ), #249 ) ;
#11 = ADVANCED_FACE ( 'NONE', ( #311 ), #36, .F. ) ;
#12 = FACE_OUTER_BOUND ( 'NONE', #18, .T. ) ;
#13 = AXIS2_PLACEMENT_3D ( 'NONE', #74, #277, #112 ) ;
#14 = CARTESIAN_POINT ( 'NONE',  ( 27.92931927204917386, -16.12499999999822009, 6.000000000000000000 ) ) ;
#15 = DIRECTION ( 'NONE',  ( -0.000000000000000000, -0.000000000000000000, -1.000000000000000000 ) ) ;
#16 = CARTESIAN_POINT ( 'NONE',  ( 0.000000000000000000, 0.000000000000000000, 6.000000000000000000 ) ) ;
#17 = FACE_OUTER_BOUND ( 'NONE', #185, .T. ) ;
#18 = EDGE_LOOP ( 'NONE', ( #155, #153, #409, #139 ) ) ;
#19 = ORIENTED_EDGE ( 'NONE', *, *, #135, .T. ) ;
#20 = FILL_AREA_STYLE ('',( #225 ) ) ;
#21 = VERTEX_POINT ( 'NONE', #199 ) ;
#22 =( LENGTH_UNIT ( ) NAMED_UNIT ( * ) SI_UNIT ( .MILLI., .METRE. ) );
#23 = EDGE_LOOP ( 'NONE', ( #105, #120, #216, #144 ) ) ;
#24 = DIRECTION ( 'NONE',  ( -1.000000000000000000, 0.000000000000000000, 0.000000000000000000 ) ) ;
#25 = PRESENTATION_LAYER_ASSIGNMENT (  '', '', ( #167 ) ) ;
#26 = DIRECTION ( 'NONE',  ( 0.000000000000000000, 0.000000000000000000, -1.000000000000000000 ) ) ;
#27 = PRODUCT_RELATED_PRODUCT_CATEGORY ( 'part', '', ( #90 ) ) ;
#28 = EDGE_CURVE ( 'NONE', #21, #320, #252, .T. ) ;
#29 = EDGE_LOOP ( 'NONE', ( #180, #371, #356, #93 ) ) ;
#30 = EDGE_LOOP ( 'NONE', ( #318, #195, #247, #197 ) ) ;
#31 = VECTOR ( 'NONE', #174, 1000.000000000000000 ) ;
#32 = VECTOR ( 'NONE', #15, 1000.000000000000000 ) ;
#33 = CIRCLE ( 'NONE', #64, 42.50000000000000711 ) ;
#34 = VERTEX_POINT ( 'NONE', #152 ) ;
#35 = ORIENTED_EDGE ( 'NONE', *, *, #298, .F. ) ;
#36 = CYLINDRICAL_SURFACE ( 'NONE', #196, 4.250000000000000000 ) ;
#37 = EDGE_CURVE ( 'NONE', #51, #89, #232, .T. ) ;
#38 = CARTESIAN_POINT ( 'NONE',  ( 41.50000000000003553, 5.143516556418885689E-15, 6.000000000000000000 ) ) ;
#39 = CARTESIAN_POINT ( 'NONE',  ( 42.50000000000000711, 5.204748896376252474E-15, 6.000000000000000000 ) ) ;
#40 = VERTEX_POINT ( 'NONE', #267 ) ;
#41 = LINE ( 'NONE', #116, #31 ) ;
#42 = CIRCLE ( 'NONE', #13, 4.250000000000003553 ) ;
#43 = DIRECTION ( 'NONE',  ( 0.000000000000000000, 0.000000000000000000, 1.000000000000000000 ) ) ;
#44 = CARTESIAN_POINT ( 'NONE',  ( -23.67931927204609721, -16.12500000000001776, 0.000000000000000000 ) ) ;
#45 = FACE_OUTER_BOUND ( 'NONE', #368, .T. ) ;
#46 = DIRECTION ( 'NONE',  ( 0.000000000000000000, 0.000000000000000000, -1.000000000000000000 ) ) ;
#47 = CARTESIAN_POINT ( 'NONE',  ( -27.92931927204610076, -16.12500000000001776, 6.000000000000000000 ) ) ;
#48 = ORIENTED_EDGE ( 'NONE', *, *, #212, .F. ) ;
#49 =( GEOMETRIC_REPRESENTATION_CONTEXT ( 3 ) GLOBAL_UNCERTAINTY_ASSIGNED_CONTEXT ( ( #148 ) ) GLOBAL_UNIT_ASSIGNED_CONTEXT ( ( #22, #85, #124 ) ) REPRESENTATION_CONTEXT ( 'NONE', 'WORKASPACE' ) );
#50 = AXIS2_PLACEMENT_3D ( 'NONE', #239, #275, #209 ) ;
#51 = VERTEX_POINT ( 'NONE', #395 ) ;
#52 = EDGE_CURVE ( 'NONE', #89, #51, #42, .T. ) ;
#53 = EDGE_CURVE ( 'NONE', #2, #158, #220, .T. ) ;
#54 = ORIENTED_EDGE ( 'NONE', *, *, #71, .F. ) ;
#55 = CYLINDRICAL_SURFACE ( 'NONE', #280, 4.250000000000003553 ) ;
#56 = CARTESIAN_POINT ( 'NONE',  ( -27.92931927204610076, -16.12500000000001776, 6.000000000000000000 ) ) ;
#57 = EDGE_CURVE ( 'NONE', #158, #2, #33, .T. ) ;
#58 = AXIS2_PLACEMENT_3D ( 'NONE', #47, #398, #278 ) ;
#59 = LINE ( 'NONE', #354, #145 ) ;
#60 = DIRECTION ( 'NONE',  ( 0.000000000000000000, 0.000000000000000000, 1.000000000000000000 ) ) ;
#61 = EDGE_CURVE ( 'NONE', #21, #188, #360, .T. ) ;
#62 = DIRECTION ( 'NONE',  ( -0.000000000000000000, -0.000000000000000000, -1.000000000000000000 ) ) ;
#63 = CIRCLE ( 'NONE', #238, 4.250000000000000888 ) ;
#64 = AXIS2_PLACEMENT_3D ( 'NONE', #118, #389, #69 ) ;
#65 = EDGE_CURVE ( 'NONE', #189, #34, #289, .T. ) ;
#66 = CYLINDRICAL_SURFACE ( 'NONE', #110, 4.250000000000000888 ) ;
#67 = CARTESIAN_POINT ( 'NONE',  ( -4.250000000000000888, 32.25000000000000000, 6.000000000000000000 ) ) ;
#68 = ORIENTED_EDGE ( 'NONE', *, *, #337, .F. ) ;
#69 = DIRECTION ( 'NONE',  ( 1.000000000000000000, 0.000000000000000000, 0.000000000000000000 ) ) ;
#70 = DIRECTION ( 'NONE',  ( 1.000000000000000000, 0.000000000000000000, 0.000000000000000000 ) ) ;
#71 = EDGE_CURVE ( 'NONE', #375, #121, #210, .T. ) ;
#72 = CIRCLE ( 'NONE', #294, 42.50000000000000711 ) ;
#73 = AXIS2_PLACEMENT_3D ( 'NONE', #328, #243, #325 ) ;
#74 = CARTESIAN_POINT ( 'NONE',  ( -27.92931927204610076, -16.12500000000001776, 6.000000000000000000 ) ) ;
#75 = CARTESIAN_POINT ( 'NONE',  ( -41.50000000000003553, 0.000000000000000000, 6.000000000000000000 ) ) ;
#76 = LINE ( 'NONE', #359, #32 ) ;
#77 = DIRECTION ( 'NONE',  ( 1.000000000000000000, 0.000000000000000000, 0.000000000000000000 ) ) ;
#78 = FACE_BOUND ( 'NONE', #160, .T. ) ;
#79 = CARTESIAN_POINT ( 'NONE',  ( 27.92931927204917386, -16.12499999999822009, 0.000000000000000000 ) ) ;
#80 = CARTESIAN_POINT ( 'NONE',  ( -42.50000000000000711, 0.000000000000000000, 0.000000000000000000 ) ) ;
#81 = APPLICATION_CONTEXT ( 'automotive_design' ) ;
#82 = ORIENTED_EDGE ( 'NONE', *, *, #183, .F. ) ;
#83 =( NAMED_UNIT ( * ) SI_UNIT ( $, .STERADIAN. ) SOLID_ANGLE_UNIT ( ) );
#84 = ORIENTED_EDGE ( 'NONE', *, *, #99, .T. ) ;
#85 =( NAMED_UNIT ( * ) PLANE_ANGLE_UNIT ( ) SI_UNIT ( $, .RADIAN. ) );
#86 = AXIS2_PLACEMENT_3D ( 'NONE', #234, #168, #256 ) ;
#87 = ORIENTED_EDGE ( 'NONE', *, *, #130, .F. ) ;
#88 = DIRECTION ( 'NONE',  ( 1.000000000000000000, 0.000000000000000000, 0.000000000000000000 ) ) ;
#89 = VERTEX_POINT ( 'NONE', #397 ) ;
#90 = PRODUCT ( 'A6_85x00x6-S', 'A6_85x00x6-S', '', ( #92 ) ) ;
#91 = CYLINDRICAL_SURFACE ( 'NONE', #378, 42.50000000000000711 ) ;
#92 = PRODUCT_CONTEXT ( 'NONE', #295, 'mechanical' ) ;
#93 = ORIENTED_EDGE ( 'NONE', *, *, #269, .F. ) ;
#94 = FACE_OUTER_BOUND ( 'NONE', #29, .T. ) ;
#95 = DIRECTION ( 'NONE',  ( 0.000000000000000000, 0.000000000000000000, 1.000000000000000000 ) ) ;
#96 = CARTESIAN_POINT ( 'NONE',  ( 4.250000000000000888, 32.25000000000000000, 6.000000000000000000 ) ) ;
#97 = ORIENTED_EDGE ( 'NONE', *, *, #150, .T. ) ;
#98 = DIRECTION ( 'NONE',  ( -0.000000000000000000, -0.000000000000000000, -1.000000000000000000 ) ) ;
#99 = EDGE_CURVE ( 'NONE', #188, #250, #146, .T. ) ;
#100 = ORIENTED_EDGE ( 'NONE', *, *, #57, .T. ) ;
#101 = SURFACE_STYLE_FILL_AREA ( #391 ) ;
#102 = CARTESIAN_POINT ( 'NONE',  ( 0.000000000000000000, 32.25000000000000000, 6.000000000000000000 ) ) ;
#103 = AXIS2_PLACEMENT_3D ( 'NONE', #376, #248, #407 ) ;
#104 = DIRECTION ( 'NONE',  ( -0.000000000000000000, -0.000000000000000000, -1.000000000000000000 ) ) ;
#105 = ORIENTED_EDGE ( 'NONE', *, *, #303, .T. ) ;
#106 = FILL_AREA_STYLE_COLOUR ( '', #353 ) ;
#107 = DIRECTION ( 'NONE',  ( 0.000000000000000000, 0.000000000000000000, 1.000000000000000000 ) ) ;
#108 = LINE ( 'NONE', #198, #271 ) ;
#109 = CARTESIAN_POINT ( 'NONE',  ( 0.000000000000000000, 0.000000000000000000, 4.999999999999992006 ) ) ;
#110 = AXIS2_PLACEMENT_3D ( 'NONE', #142, #104, #172 ) ;
#111 = AXIS2_PLACEMENT_3D ( 'NONE', #241, #208, #77 ) ;
#112 = DIRECTION ( 'NONE',  ( 1.000000000000000000, 0.000000000000000000, 0.000000000000000000 ) ) ;
#113 = DIRECTION ( 'NONE',  ( 1.000000000000000000, 0.000000000000000000, -0.000000000000000000 ) ) ;
#114 = CARTESIAN_POINT ( 'NONE',  ( 42.50000000000000711, 5.204748896376252474E-15, 0.000000000000000000 ) ) ;
#115 = PLANE ( 'NONE',  #132 ) ;
#116 = CARTESIAN_POINT ( 'NONE',  ( 4.250000000000000888, 32.25000000000000000, 6.000000000000000000 ) ) ;
#117 = UNCERTAINTY_MEASURE_WITH_UNIT (LENGTH_MEASURE( 1.000000000000000082E-05 ), #126, 'distance_accuracy_value', 'NONE');
#118 = CARTESIAN_POINT ( 'NONE',  ( 0.000000000000000000, 0.000000000000000000, 0.000000000000000000 ) ) ;
#119 = VECTOR ( 'NONE', #98, 1000.000000000000000 ) ;
#120 = ORIENTED_EDGE ( 'NONE', *, *, #291, .T. ) ;
#121 = VERTEX_POINT ( 'NONE', #363 ) ;
#122 = PRODUCT_DEFINITION ( 'NEZNÁMÝ', '', #161, #205 ) ;
#123 = EDGE_CURVE ( 'NONE', #287, #319, #386, .T. ) ;
#124 =( NAMED_UNIT ( * ) SI_UNIT ( $, .STERADIAN. ) SOLID_ANGLE_UNIT ( ) );
#125 = ORIENTED_EDGE ( 'NONE', *, *, #37, .F. ) ;
#126 =( LENGTH_UNIT ( ) NAMED_UNIT ( * ) SI_UNIT ( .MILLI., .METRE. ) );
#127 = EDGE_LOOP ( 'NONE', ( #68, #365, #136, #87 ) ) ;
#128 = DIRECTION ( 'NONE',  ( -1.000000000000000000, 0.000000000000000000, 0.000000000000000000 ) ) ;
#129 = ORIENTED_EDGE ( 'NONE', *, *, #52, .F. ) ;
#130 = EDGE_CURVE ( 'NONE', #40, #406, #63, .T. ) ;
#131 = AXIS2_PLACEMENT_3D ( 'NONE', #321, #95, #194 ) ;
#132 = AXIS2_PLACEMENT_3D ( 'NONE', #177, #312, #308 ) ;
#133 = DIRECTION ( 'NONE',  ( -0.000000000000000000, -0.000000000000000000, -1.000000000000000000 ) ) ;
#134 = EDGE_LOOP ( 'NONE', ( #84, #97, #323, #336 ) ) ;
#135 = EDGE_CURVE ( 'NONE', #250, #188, #72, .T. ) ;
#136 = ORIENTED_EDGE ( 'NONE', *, *, #298, .T. ) ;
#137 = CARTESIAN_POINT ( 'NONE',  ( -32.17931927204610787, -16.12500000000001776, 6.000000000000000000 ) ) ;
#138 = CARTESIAN_POINT ( 'NONE',  ( -4.250000000000000888, 32.25000000000000000, 6.000000000000000000 ) ) ;
#139 = ORIENTED_EDGE ( 'NONE', *, *, #201, .F. ) ;
#140 = DIRECTION ( 'NONE',  ( 0.000000000000000000, 0.000000000000000000, 1.000000000000000000 ) ) ;
#141 = DIRECTION ( 'NONE',  ( 1.000000000000000000, 0.000000000000000000, 0.000000000000000000 ) ) ;
#142 = CARTESIAN_POINT ( 'NONE',  ( 0.000000000000000000, 32.25000000000000000, 6.000000000000000000 ) ) ;
#143 = CARTESIAN_POINT ( 'NONE',  ( 32.17931927204917031, -16.12499999999822009, 0.000000000000000000 ) ) ;
#144 = ORIENTED_EDGE ( 'NONE', *, *, #191, .F. ) ;
#145 = VECTOR ( 'NONE', #305, 1000.000000000000000 ) ;
#146 = CIRCLE ( 'NONE', #379, 42.50000000000000711 ) ;
#147 = CARTESIAN_POINT ( 'NONE',  ( 0.000000000000000000, 0.000000000000000000, 6.000000000000000000 ) ) ;
#148 = UNCERTAINTY_MEASURE_WITH_UNIT (LENGTH_MEASURE( 1.000000000000000082E-05 ), #22, 'distance_accuracy_value', 'NONE');
#149 = DIRECTION ( 'NONE',  ( 0.000000000000000000, 0.000000000000000000, 1.000000000000000000 ) ) ;
#150 = EDGE_CURVE ( 'NONE', #250, #2, #203, .T. ) ;
#151 = PLANE ( 'NONE',  #340 ) ;
#152 = CARTESIAN_POINT ( 'NONE',  ( -32.17931927204610787, -16.12500000000001776, 0.000000000000000000 ) ) ;
#153 = ORIENTED_EDGE ( 'NONE', *, *, #222, .T. ) ;
#154 = ADVANCED_FACE ( 'NONE', ( #17, #327, #362, #78 ), #115, .F. ) ;
#155 = ORIENTED_EDGE ( 'NONE', *, *, #37, .T. ) ;
#156 = FACE_OUTER_BOUND ( 'NONE', #338, .T. ) ;
#157 =( NAMED_UNIT ( * ) SI_UNIT ( $, .STERADIAN. ) SOLID_ANGLE_UNIT ( ) );
#158 = VERTEX_POINT ( 'NONE', #80 ) ;
#159 = SURFACE_STYLE_USAGE ( .BOTH. , #347 ) ;
#160 = EDGE_LOOP ( 'NONE', ( #403, #279 ) ) ;
#161 = PRODUCT_DEFINITION_FORMATION_WITH_SPECIFIED_SOURCE ( 'LIBOVOLNÝ', '', #90, .NOT_KNOWN. ) ;
#162 = PRESENTATION_STYLE_ASSIGNMENT (( #159 ) ) ;
#163 = AXIS2_PLACEMENT_3D ( 'NONE', #206, #304, #274 ) ;
#164 = DIRECTION ( 'NONE',  ( -0.000000000000000000, -0.000000000000000000, -1.000000000000000000 ) ) ;
#165 = CARTESIAN_POINT ( 'NONE',  ( -4.250000000000000888, 32.25000000000000000, 0.000000000000000000 ) ) ;
#166 = ORIENTED_EDGE ( 'NONE', *, *, #28, .T. ) ;
#167 = STYLED_ITEM ( 'NONE', ( #313 ), #348 ) ;
#168 = DIRECTION ( 'NONE',  ( 0.000000000000000000, 0.000000000000000000, 1.000000000000000000 ) ) ;
#169 = EDGE_LOOP ( 'NONE', ( #170, #54 ) ) ;
#170 = ORIENTED_EDGE ( 'NONE', *, *, #303, .F. ) ;
#171 = AXIS2_PLACEMENT_3D ( 'NONE', #79, #140, #211 ) ;
#172 = DIRECTION ( 'NONE',  ( -1.000000000000000000, 0.000000000000000000, 0.000000000000000000 ) ) ;
#173 = EDGE_CURVE ( 'NONE', #188, #158, #76, .T. ) ;
#174 = DIRECTION ( 'NONE',  ( -0.000000000000000000, -0.000000000000000000, -1.000000000000000000 ) ) ;
#175 = DIRECTION ( 'NONE',  ( -0.000000000000000000, -0.000000000000000000, -1.000000000000000000 ) ) ;
#176 = ADVANCED_FACE ( 'NONE', ( #204, #396, #244, #213 ), #151, .T. ) ;
#177 = CARTESIAN_POINT ( 'NONE',  ( 0.000000000000000000, 0.000000000000000000, 0.000000000000000000 ) ) ;
#178 = DIRECTION ( 'NONE',  ( -1.000000000000000000, 0.000000000000000000, 0.000000000000000000 ) ) ;
#179 = CYLINDRICAL_SURFACE ( 'NONE', #58, 4.250000000000003553 ) ;
#180 = ORIENTED_EDGE ( 'NONE', *, *, #291, .F. ) ;
#181 = DIRECTION ( 'NONE',  ( 0.000000000000000000, 0.000000000000000000, 1.000000000000000000 ) ) ;
#182 = EDGE_CURVE ( 'NONE', #34, #189, #187, .T. ) ;
#183 = EDGE_CURVE ( 'NONE', #320, #21, #264, .T. ) ;
#184 =( NAMED_UNIT ( * ) PLANE_ANGLE_UNIT ( ) SI_UNIT ( $, .RADIAN. ) );
#185 = EDGE_LOOP ( 'NONE', ( #307, #266 ) ) ;
#186 = AXIS2_PLACEMENT_3D ( 'NONE', #192, #60, #382 ) ;
#187 = CIRCLE ( 'NONE', #50, 4.250000000000003553 ) ;
#188 = VERTEX_POINT ( 'NONE', #333 ) ;
#189 = VERTEX_POINT ( 'NONE', #44 ) ;
#190 = ADVANCED_FACE ( 'NONE', ( #12 ), #179, .F. ) ;
#191 = EDGE_CURVE ( 'NONE', #121, #287, #401, .T. ) ;
#192 = CARTESIAN_POINT ( 'NONE',  ( 0.000000000000000000, 32.25000000000000000, 6.000000000000000000 ) ) ;
#193 = ADVANCED_FACE ( 'NONE', ( #94 ), #268, .F. ) ;
#194 = DIRECTION ( 'NONE',  ( 1.000000000000000000, 0.000000000000000000, 0.000000000000000000 ) ) ;
#195 = ORIENTED_EDGE ( 'NONE', *, *, #52, .T. ) ;
#196 = AXIS2_PLACEMENT_3D ( 'NONE', #14, #361, #178 ) ;
#197 = ORIENTED_EDGE ( 'NONE', *, *, #65, .F. ) ;
#198 = CARTESIAN_POINT ( 'NONE',  ( -23.67931927204609721, -16.12500000000001776, 6.000000000000000000 ) ) ;
#199 = CARTESIAN_POINT ( 'NONE',  ( -41.50000000000003553, 0.000000000000000000, 6.000000000000000000 ) ) ;
#200 = CIRCLE ( 'NONE', #186, 4.250000000000000888 ) ;
#201 = EDGE_CURVE ( 'NONE', #51, #34, #384, .T. ) ;
#202 = CARTESIAN_POINT ( 'NONE',  ( 42.50000000000000711, 5.204748896376252474E-15, 4.999999999999992006 ) ) ;
#203 = LINE ( 'NONE', #39, #219 ) ;
#204 = FACE_OUTER_BOUND ( 'NONE', #260, .T. ) ;
#205 = PRODUCT_DEFINITION_CONTEXT ( 'detailed design', #81, 'design' ) ;
#206 = CARTESIAN_POINT ( 'NONE',  ( -27.92931927204610076, -16.12500000000001776, 0.000000000000000000 ) ) ;
#207 = CYLINDRICAL_SURFACE ( 'NONE', #263, 42.50000000000000711 ) ;
#208 = DIRECTION ( 'NONE',  ( 0.000000000000000000, 0.000000000000000000, 1.000000000000000000 ) ) ;
#209 = DIRECTION ( 'NONE',  ( 1.000000000000000000, 0.000000000000000000, 0.000000000000000000 ) ) ;
#210 = CIRCLE ( 'NONE', #73, 4.250000000000000000 ) ;
#211 = DIRECTION ( 'NONE',  ( 1.000000000000000000, 0.000000000000000000, 0.000000000000000000 ) ) ;
#212 = EDGE_CURVE ( 'NONE', #297, #352, #281, .T. ) ;
#213 = FACE_BOUND ( 'NONE', #292, .T. ) ;
#214 = ORIENTED_EDGE ( 'NONE', *, *, #61, .F. ) ;
#215 = CYLINDRICAL_SURFACE ( 'NONE', #103, 4.250000000000000888 ) ;
#216 = ORIENTED_EDGE ( 'NONE', *, *, #123, .F. ) ;
#217 = FACE_OUTER_BOUND ( 'NONE', #30, .T. ) ;
#218 = CONICAL_SURFACE ( 'NONE', #288, 41.50000000000003553, 0.7853981633974309595 ) ;
#219 = VECTOR ( 'NONE', #175, 1000.000000000000000 ) ;
#220 = CIRCLE ( 'NONE', #341, 42.50000000000000711 ) ;
#221 = ORIENTED_EDGE ( 'NONE', *, *, #99, .F. ) ;
#222 = EDGE_CURVE ( 'NONE', #89, #189, #108, .T. ) ;
#223 = ORIENTED_EDGE ( 'NONE', *, *, #123, .T. ) ;
#224 = CARTESIAN_POINT ( 'NONE',  ( 0.000000000000000000, 0.000000000000000000, 6.000000000000000000 ) ) ;
#225 = FILL_AREA_STYLE_COLOUR ( '', #237 ) ;
#226 = AXIS2_PLACEMENT_3D ( 'NONE', #351, #62, #5 ) ;
#227 = EDGE_CURVE ( 'NONE', #320, #250, #59, .T. ) ;
#228 = CARTESIAN_POINT ( 'NONE',  ( 23.67931927204917386, -16.12499999999822009, 6.000000000000000000 ) ) ;
#229 = LINE ( 'NONE', #380, #317 ) ;
#230 = FACE_OUTER_BOUND ( 'NONE', #381, .T. ) ;
#231 = MECHANICAL_DESIGN_GEOMETRIC_PRESENTATION_REPRESENTATION (  '', ( #167 ), #251 ) ;
#232 = CIRCLE ( 'NONE', #111, 4.250000000000003553 ) ;
#233 = CARTESIAN_POINT ( 'NONE',  ( 23.67931927204917386, -16.12499999999822009, 0.000000000000000000 ) ) ;
#234 = CARTESIAN_POINT ( 'NONE',  ( 27.92931927204917386, -16.12499999999822009, 0.000000000000000000 ) ) ;
#235 = ORIENTED_EDGE ( 'NONE', *, *, #270, .F. ) ;
#236 = DIRECTION ( 'NONE',  ( 1.000000000000000000, 0.000000000000000000, 0.000000000000000000 ) ) ;
#237 = COLOUR_RGB ( '',0.6156862745098039547, 0.6431372549019607199, 0.6745098039215686736 ) ;
#238 = AXIS2_PLACEMENT_3D ( 'NONE', #334, #107, #236 ) ;
#239 = CARTESIAN_POINT ( 'NONE',  ( -27.92931927204610076, -16.12500000000001776, 0.000000000000000000 ) ) ;
#240 = UNCERTAINTY_MEASURE_WITH_UNIT (LENGTH_MEASURE( 1.000000000000000082E-05 ), #310, 'distance_accuracy_value', 'NONE');
#241 = CARTESIAN_POINT ( 'NONE',  ( -27.92931927204610076, -16.12500000000001776, 6.000000000000000000 ) ) ;
#242 = DIRECTION ( 'NONE',  ( 0.000000000000000000, 0.000000000000000000, 1.000000000000000000 ) ) ;
#243 = DIRECTION ( 'NONE',  ( 0.000000000000000000, 0.000000000000000000, 1.000000000000000000 ) ) ;
#244 = FACE_BOUND ( 'NONE', #383, .T. ) ;
#245 = SURFACE_SIDE_STYLE ('',( #101 ) ) ;
#246 = ORIENTED_EDGE ( 'NONE', *, *, #135, .F. ) ;
#247 = ORIENTED_EDGE ( 'NONE', *, *, #201, .T. ) ;
#248 = DIRECTION ( 'NONE',  ( -0.000000000000000000, -0.000000000000000000, -1.000000000000000000 ) ) ;
#249 =( GEOMETRIC_REPRESENTATION_CONTEXT ( 3 ) GLOBAL_UNCERTAINTY_ASSIGNED_CONTEXT ( ( #117 ) ) GLOBAL_UNIT_ASSIGNED_CONTEXT ( ( #126, #410, #83 ) ) REPRESENTATION_CONTEXT ( 'NONE', 'WORKASPACE' ) );
#250 = VERTEX_POINT ( 'NONE', #202 ) ;
#251 =( GEOMETRIC_REPRESENTATION_CONTEXT ( 3 ) GLOBAL_UNCERTAINTY_ASSIGNED_CONTEXT ( ( #240 ) ) GLOBAL_UNIT_ASSIGNED_CONTEXT ( ( #310, #184, #157 ) ) REPRESENTATION_CONTEXT ( 'NONE', 'WORKASPACE' ) );
#252 = CIRCLE ( 'NONE', #411, 41.50000000000003553 ) ;
#253 = ORIENTED_EDGE ( 'NONE', *, *, #227, .F. ) ;
#254 = FACE_OUTER_BOUND ( 'NONE', #259, .T. ) ;
#255 = DIRECTION ( 'NONE',  ( -0.000000000000000000, -0.000000000000000000, -1.000000000000000000 ) ) ;
#256 = DIRECTION ( 'NONE',  ( 1.000000000000000000, 0.000000000000000000, 0.000000000000000000 ) ) ;
#257 = ORIENTED_EDGE ( 'NONE', *, *, #150, .F. ) ;
#258 = AXIS2_PLACEMENT_3D ( 'NONE', #102, #390, #70 ) ;
#259 = EDGE_LOOP ( 'NONE', ( #309, #301, #3, #35 ) ) ;
#260 = EDGE_LOOP ( 'NONE', ( #166, #316 ) ) ;
#261 = ADVANCED_FACE ( 'NONE', ( #326 ), #66, .F. ) ;
#262 = EDGE_CURVE ( 'NONE', #406, #40, #394, .T. ) ;
#263 = AXIS2_PLACEMENT_3D ( 'NONE', #147, #276, #399 ) ;
#264 = CIRCLE ( 'NONE', #272, 41.50000000000003553 ) ;
#265 = DIRECTION ( 'NONE',  ( 1.000000000000000000, 0.000000000000000000, 0.000000000000000000 ) ) ;
#266 = ORIENTED_EDGE ( 'NONE', *, *, #53, .F. ) ;
#267 = CARTESIAN_POINT ( 'NONE',  ( 4.250000000000000888, 32.25000000000000000, 0.000000000000000000 ) ) ;
#268 = CYLINDRICAL_SURFACE ( 'NONE', #226, 4.250000000000000000 ) ;
#269 = EDGE_CURVE ( 'NONE', #319, #287, #332, .T. ) ;
#270 = EDGE_CURVE ( 'NONE', #352, #297, #200, .T. ) ;
#271 = VECTOR ( 'NONE', #300, 1000.000000000000000 ) ;
#272 = AXIS2_PLACEMENT_3D ( 'NONE', #315, #242, #335 ) ;
#273 = VECTOR ( 'NONE', #358, 1000.000000000000000 ) ;
#274 = DIRECTION ( 'NONE',  ( 1.000000000000000000, 0.000000000000000000, 0.000000000000000000 ) ) ;
#275 = DIRECTION ( 'NONE',  ( 0.000000000000000000, 0.000000000000000000, 1.000000000000000000 ) ) ;
#276 = DIRECTION ( 'NONE',  ( -0.000000000000000000, -0.000000000000000000, -1.000000000000000000 ) ) ;
#277 = DIRECTION ( 'NONE',  ( 0.000000000000000000, 0.000000000000000000, 1.000000000000000000 ) ) ;
#278 = DIRECTION ( 'NONE',  ( -1.000000000000000000, 0.000000000000000000, 0.000000000000000000 ) ) ;
#279 = ORIENTED_EDGE ( 'NONE', *, *, #65, .T. ) ;
#280 = AXIS2_PLACEMENT_3D ( 'NONE', #56, #164, #24 ) ;
#281 = CIRCLE ( 'NONE', #258, 4.250000000000000888 ) ;
#282 = ORIENTED_EDGE ( 'NONE', *, *, #130, .T. ) ;
#283 = SURFACE_STYLE_FILL_AREA ( #20 ) ;
#284 = EDGE_LOOP ( 'NONE', ( #223, #345 ) ) ;
#285 = CARTESIAN_POINT ( 'NONE',  ( 0.000000000000000000, 0.000000000000000000, 0.000000000000000000 ) ) ;
#286 = AXIS2_PLACEMENT_3D ( 'NONE', #285, #372, #88 ) ;
#287 = VERTEX_POINT ( 'NONE', #233 ) ;
#288 = AXIS2_PLACEMENT_3D ( 'NONE', #306, #412, #1 ) ;
#289 = CIRCLE ( 'NONE', #163, 4.250000000000003553 ) ;
#290 = CARTESIAN_POINT ( 'NONE',  ( 0.000000000000000000, 0.000000000000000000, 6.000000000000000000 ) ) ;
#291 = EDGE_CURVE ( 'NONE', #375, #319, #229, .T. ) ;
#292 = EDGE_LOOP ( 'NONE', ( #125, #129 ) ) ;
#293 = VECTOR ( 'NONE', #133, 1000.000000000000000 ) ;
#294 = AXIS2_PLACEMENT_3D ( 'NONE', #109, #357, #141 ) ;
#295 = APPLICATION_CONTEXT ( 'automotive_design' ) ;
#296 = SHAPE_DEFINITION_REPRESENTATION ( #344, #364 ) ;
#297 = VERTEX_POINT ( 'NONE', #67 ) ;
#298 = EDGE_CURVE ( 'NONE', #297, #406, #6, .T. ) ;
#299 = DIRECTION ( 'NONE',  ( -0.000000000000000000, -0.000000000000000000, -1.000000000000000000 ) ) ;
#300 = DIRECTION ( 'NONE',  ( -0.000000000000000000, -0.000000000000000000, -1.000000000000000000 ) ) ;
#301 = ORIENTED_EDGE ( 'NONE', *, *, #337, .T. ) ;
#302 = DIRECTION ( 'NONE',  ( -0.000000000000000000, -0.000000000000000000, -1.000000000000000000 ) ) ;
#303 = EDGE_CURVE ( 'NONE', #121, #375, #339, .T. ) ;
#304 = DIRECTION ( 'NONE',  ( 0.000000000000000000, 0.000000000000000000, 1.000000000000000000 ) ) ;
#305 = DIRECTION ( 'NONE',  ( 0.7071067811865352493, 8.659560562354782482E-17, -0.7071067811865597852 ) ) ;
#306 = CARTESIAN_POINT ( 'NONE',  ( 0.000000000000000000, 0.000000000000000000, 6.000000000000000000 ) ) ;
#307 = ORIENTED_EDGE ( 'NONE', *, *, #57, .F. ) ;
#308 = DIRECTION ( 'NONE',  ( 1.000000000000000000, 0.000000000000000000, -0.000000000000000000 ) ) ;
#309 = ORIENTED_EDGE ( 'NONE', *, *, #212, .T. ) ;
#310 =( LENGTH_UNIT ( ) NAMED_UNIT ( * ) SI_UNIT ( .MILLI., .METRE. ) );
#311 = FACE_OUTER_BOUND ( 'NONE', #23, .T. ) ;
#312 = DIRECTION ( 'NONE',  ( 0.000000000000000000, 0.000000000000000000, 1.000000000000000000 ) ) ;
#313 = PRESENTATION_STYLE_ASSIGNMENT (( #370 ) ) ;
#314 = CARTESIAN_POINT ( 'NONE',  ( 0.000000000000000000, 0.000000000000000000, 4.999999999999992006 ) ) ;
#315 = CARTESIAN_POINT ( 'NONE',  ( 0.000000000000000000, 0.000000000000000000, 6.000000000000000000 ) ) ;
#316 = ORIENTED_EDGE ( 'NONE', *, *, #183, .T. ) ;
#317 = VECTOR ( 'NONE', #299, 1000.000000000000000 ) ;
#318 = ORIENTED_EDGE ( 'NONE', *, *, #222, .F. ) ;
#319 = VERTEX_POINT ( 'NONE', #143 ) ;
#320 = VERTEX_POINT ( 'NONE', #38 ) ;
#321 = CARTESIAN_POINT ( 'NONE',  ( 27.92931927204917386, -16.12499999999822009, 6.000000000000000000 ) ) ;
#322 = ORIENTED_EDGE ( 'NONE', *, *, #227, .T. ) ;
#323 = ORIENTED_EDGE ( 'NONE', *, *, #53, .T. ) ;
#324 = CONICAL_SURFACE ( 'NONE', #385, 41.50000000000003553, 0.7853981633974309595 ) ;
#325 = DIRECTION ( 'NONE',  ( 1.000000000000000000, 0.000000000000000000, 0.000000000000000000 ) ) ;
#326 = FACE_OUTER_BOUND ( 'NONE', #127, .T. ) ;
#327 = FACE_BOUND ( 'NONE', #405, .T. ) ;
#328 = CARTESIAN_POINT ( 'NONE',  ( 27.92931927204917386, -16.12499999999822009, 6.000000000000000000 ) ) ;
#329 = CARTESIAN_POINT ( 'NONE',  ( 0.000000000000000000, 0.000000000000000000, 6.000000000000000000 ) ) ;
#330 = ADVANCED_FACE ( 'NONE', ( #45 ), #207, .T. ) ;
#331 = DIRECTION ( 'NONE',  ( 1.000000000000000000, 0.000000000000000000, 0.000000000000000000 ) ) ;
#332 = CIRCLE ( 'NONE', #86, 4.250000000000000000 ) ;
#333 = CARTESIAN_POINT ( 'NONE',  ( -42.50000000000000711, 0.000000000000000000, 4.999999999999992006 ) ) ;
#334 = CARTESIAN_POINT ( 'NONE',  ( 0.000000000000000000, 32.25000000000000000, 0.000000000000000000 ) ) ;
#335 = DIRECTION ( 'NONE',  ( 1.000000000000000000, 0.000000000000000000, 0.000000000000000000 ) ) ;
#336 = ORIENTED_EDGE ( 'NONE', *, *, #173, .F. ) ;
#337 = EDGE_CURVE ( 'NONE', #352, #40, #41, .T. ) ;
#338 = EDGE_LOOP ( 'NONE', ( #82, #322, #221, #214 ) ) ;
#339 = CIRCLE ( 'NONE', #131, 4.250000000000000000 ) ;
#340 = AXIS2_PLACEMENT_3D ( 'NONE', #329, #181, #113 ) ;
#341 = AXIS2_PLACEMENT_3D ( 'NONE', #393, #43, #400 ) ;
#342 = ORIENTED_EDGE ( 'NONE', *, *, #262, .T. ) ;
#343 = FACE_OUTER_BOUND ( 'NONE', #134, .T. ) ;
#344 = PRODUCT_DEFINITION_SHAPE ( 'NONE', 'NONE',  #122 ) ;
#345 = ORIENTED_EDGE ( 'NONE', *, *, #269, .T. ) ;
#346 = DIRECTION ( 'NONE',  ( -1.000000000000000000, 0.000000000000000000, 0.000000000000000000 ) ) ;
#347 = SURFACE_SIDE_STYLE ('',( #283 ) ) ;
#348 = MANIFOLD_SOLID_BREP ( 'Zkosení1', #374 ) ;
#349 = APPLICATION_PROTOCOL_DEFINITION ( 'draft international standard', 'automotive_design', 1998, #81 ) ;
#350 = ORIENTED_EDGE ( 'NONE', *, *, #173, .T. ) ;
#351 = CARTESIAN_POINT ( 'NONE',  ( 27.92931927204917386, -16.12499999999822009, 6.000000000000000000 ) ) ;
#352 = VERTEX_POINT ( 'NONE', #96 ) ;
#353 = COLOUR_RGB ( '',0.6156862745098039547, 0.6431372549019607199, 0.6745098039215686736 ) ;
#354 = CARTESIAN_POINT ( 'NONE',  ( 41.50000000000003553, 5.082284216461519692E-15, 6.000000000000000000 ) ) ;
#355 = ADVANCED_FACE ( 'NONE', ( #230 ), #218, .T. ) ;
#356 = ORIENTED_EDGE ( 'NONE', *, *, #191, .T. ) ;
#357 = DIRECTION ( 'NONE',  ( 0.000000000000000000, 0.000000000000000000, -1.000000000000000000 ) ) ;
#358 = DIRECTION ( 'NONE',  ( -0.7071067811865352493, 0.000000000000000000, -0.7071067811865597852 ) ) ;
#359 = CARTESIAN_POINT ( 'NONE',  ( -42.50000000000000711, 0.000000000000000000, 6.000000000000000000 ) ) ;
#360 = LINE ( 'NONE', #75, #273 ) ;
#361 = DIRECTION ( 'NONE',  ( -0.000000000000000000, -0.000000000000000000, -1.000000000000000000 ) ) ;
#362 = FACE_BOUND ( 'NONE', #284, .T. ) ;
#363 = CARTESIAN_POINT ( 'NONE',  ( 23.67931927204917386, -16.12499999999822009, 6.000000000000000000 ) ) ;
#364 = ADVANCED_BREP_SHAPE_REPRESENTATION ( 'A6_85x00x6-S', ( #348, #286 ), #49 ) ;
#365 = ORIENTED_EDGE ( 'NONE', *, *, #270, .T. ) ;
#366 = ADVANCED_FACE ( 'NONE', ( #156 ), #324, .T. ) ;
#367 = ADVANCED_FACE ( 'NONE', ( #254 ), #215, .F. ) ;
#368 = EDGE_LOOP ( 'NONE', ( #257, #19, #350, #100 ) ) ;
#369 = CARTESIAN_POINT ( 'NONE',  ( 32.17931927204917031, -16.12499999999822009, 6.000000000000000000 ) ) ;
#370 = SURFACE_STYLE_USAGE ( .BOTH. , #245 ) ;
#371 = ORIENTED_EDGE ( 'NONE', *, *, #71, .T. ) ;
#372 = DIRECTION ( 'NONE',  ( 0.000000000000000000, 0.000000000000000000, 1.000000000000000000 ) ) ;
#373 = AXIS2_PLACEMENT_3D ( 'NONE', #8, #387, #265 ) ;
#374 = CLOSED_SHELL ( 'NONE', ( #366, #190, #11, #367, #402, #176, #154, #330, #261, #193, #392, #355 ) ) ;
#375 = VERTEX_POINT ( 'NONE', #369 ) ;
#376 = CARTESIAN_POINT ( 'NONE',  ( 0.000000000000000000, 32.25000000000000000, 6.000000000000000000 ) ) ;
#377 = APPLICATION_PROTOCOL_DEFINITION ( 'draft international standard', 'automotive_design', 1998, #295 ) ;
#378 = AXIS2_PLACEMENT_3D ( 'NONE', #224, #255, #346 ) ;
#379 = AXIS2_PLACEMENT_3D ( 'NONE', #314, #46, #9 ) ;
#380 = CARTESIAN_POINT ( 'NONE',  ( 32.17931927204917031, -16.12499999999822009, 6.000000000000000000 ) ) ;
#381 = EDGE_LOOP ( 'NONE', ( #253, #388, #4, #246 ) ) ;
#382 = DIRECTION ( 'NONE',  ( 1.000000000000000000, 0.000000000000000000, 0.000000000000000000 ) ) ;
#383 = EDGE_LOOP ( 'NONE', ( #48, #235 ) ) ;
#384 = LINE ( 'NONE', #137, #404 ) ;
#385 = AXIS2_PLACEMENT_3D ( 'NONE', #290, #26, #128 ) ;
#386 = CIRCLE ( 'NONE', #171, 4.250000000000000000 ) ;
#387 = DIRECTION ( 'NONE',  ( 0.000000000000000000, 0.000000000000000000, 1.000000000000000000 ) ) ;
#388 = ORIENTED_EDGE ( 'NONE', *, *, #28, .F. ) ;
#389 = DIRECTION ( 'NONE',  ( 0.000000000000000000, 0.000000000000000000, 1.000000000000000000 ) ) ;
#390 = DIRECTION ( 'NONE',  ( 0.000000000000000000, 0.000000000000000000, 1.000000000000000000 ) ) ;
#391 = FILL_AREA_STYLE ('',( #106 ) ) ;
#392 = ADVANCED_FACE ( 'NONE', ( #217 ), #55, .F. ) ;
#393 = CARTESIAN_POINT ( 'NONE',  ( 0.000000000000000000, 0.000000000000000000, 0.000000000000000000 ) ) ;
#394 = CIRCLE ( 'NONE', #373, 4.250000000000000888 ) ;
#395 = CARTESIAN_POINT ( 'NONE',  ( -32.17931927204610787, -16.12500000000001776, 6.000000000000000000 ) ) ;
#396 = FACE_BOUND ( 'NONE', #169, .T. ) ;
#397 = CARTESIAN_POINT ( 'NONE',  ( -23.67931927204609721, -16.12500000000001776, 6.000000000000000000 ) ) ;
#398 = DIRECTION ( 'NONE',  ( -0.000000000000000000, -0.000000000000000000, -1.000000000000000000 ) ) ;
#399 = DIRECTION ( 'NONE',  ( -1.000000000000000000, 0.000000000000000000, 0.000000000000000000 ) ) ;
#400 = DIRECTION ( 'NONE',  ( 1.000000000000000000, 0.000000000000000000, 0.000000000000000000 ) ) ;
#401 = LINE ( 'NONE', #228, #119 ) ;
#402 = ADVANCED_FACE ( 'NONE', ( #343 ), #91, .T. ) ;
#403 = ORIENTED_EDGE ( 'NONE', *, *, #182, .T. ) ;
#404 = VECTOR ( 'NONE', #302, 1000.000000000000000 ) ;
#405 = EDGE_LOOP ( 'NONE', ( #342, #282 ) ) ;
#406 = VERTEX_POINT ( 'NONE', #165 ) ;
#407 = DIRECTION ( 'NONE',  ( -1.000000000000000000, 0.000000000000000000, 0.000000000000000000 ) ) ;
#408 = PRESENTATION_LAYER_ASSIGNMENT (  '', '', ( #7 ) ) ;
#409 = ORIENTED_EDGE ( 'NONE', *, *, #182, .F. ) ;
#410 =( NAMED_UNIT ( * ) PLANE_ANGLE_UNIT ( ) SI_UNIT ( $, .RADIAN. ) );
#411 = AXIS2_PLACEMENT_3D ( 'NONE', #16, #149, #331 ) ;
#412 = DIRECTION ( 'NONE',  ( 0.000000000000000000, 0.000000000000000000, -1.000000000000000000 ) ) ;
ENDSEC;
END-ISO-10303-21;
