ISO-10303-21;
HEADER;
FILE_DESCRIPTION (( 'STEP AP203' ),
    '1' );
FILE_NAME ('A10_0015-010.STEP',
    '2018-12-14T13:05:33',
    ( '' ),
    ( '' ),
    'SwSTEP 2.0',
    'SolidWorks 2018',
    '' );
FILE_SCHEMA (( 'CONFIG_CONTROL_DESIGN' ));
ENDSEC;

DATA;
#1 = LINE ( 'NONE', #193, #251 ) ;
#2 = CARTESIAN_POINT ( 'NONE',  ( -7.500000000000000000, 0.0000000000000000000, 0.0000000000000000000 ) ) ;
#3 = EDGE_CURVE ( 'NONE', #238, #197, #205, .T. ) ;
#4 = ORIENTED_EDGE ( 'NONE', *, *, #3, .F. ) ;
#5 = ORIENTED_EDGE ( 'NONE', *, *, #118, .T. ) ;
#6 = DIRECTION ( 'NONE',  ( 0.0000000000000000000, 0.0000000000000000000, 1.000000000000000000 ) ) ;
#7 = ORIENTED_EDGE ( 'NONE', *, *, #173, .F. ) ;
#8 = CARTESIAN_POINT ( 'NONE',  ( 0.0000000000000000000, 0.0000000000000000000, 0.4999999999999970024 ) ) ;
#9 = LINE ( 'NONE', #326, #311 ) ;
#10 = CARTESIAN_POINT ( 'NONE',  ( 0.0000000000000000000, 0.0000000000000000000, 0.0000000000000000000 ) ) ;
#11 = CONICAL_SURFACE ( 'NONE', #260, 5.149999999999987921, 0.7853981633974482790 ) ;
#12 = ORIENTED_EDGE ( 'NONE', *, *, #347, .T. ) ;
#13 = CARTESIAN_POINT ( 'NONE',  ( 5.149999999999987921, 6.306931015608854805E-16, 9.999999999999994671 ) ) ;
#14 = EDGE_CURVE ( 'NONE', #92, #177, #343, .T. ) ;
#15 = DESIGN_CONTEXT ( 'detailed design', #138, 'design' ) ;
#16 = FACE_OUTER_BOUND ( 'NONE', #42, .T. ) ;
#17 = PERSON_AND_ORGANIZATION_ROLE ( 'classification_officer' ) ;
#18 = DIRECTION ( 'NONE',  ( -0.0000000000000000000, -0.0000000000000000000, -1.000000000000000000 ) ) ;
#19 = DATE_TIME_ROLE ( 'creation_date' ) ;
#20 = PRODUCT_DEFINITION ( 'NEZNÁMÝ', '', #51, #15 ) ;
#21 = DATE_TIME_ROLE ( 'classification_date' ) ;
#22 = CIRCLE ( 'NONE', #191, 6.499999999999994671 ) ;
#23 = EDGE_CURVE ( 'NONE', #148, #177, #369, .T. ) ;
#24 = ADVANCED_FACE ( 'NONE', ( #16 ), #30, .T. ) ;
#25 = COORDINATED_UNIVERSAL_TIME_OFFSET ( 1, 0, .AHEAD. ) ;
#26 = CC_DESIGN_APPROVAL ( #254, ( #20 ) ) ;
#27 = VECTOR ( 'NONE', #165, 1000.000000000000000 ) ;
#28 = ORIENTED_EDGE ( 'NONE', *, *, #14, .F. ) ;
#29 = VERTEX_POINT ( 'NONE', #97 ) ;
#30 = CYLINDRICAL_SURFACE ( 'NONE', #155, 7.500000000000000000 ) ;
#31 = APPROVAL ( #222, 'NEURÈENÝ' ) ;
#32 = PERSON_AND_ORGANIZATION ( #45, #53 ) ;
#33 = EDGE_CURVE ( 'NONE', #284, #35, #188, .T. ) ;
#34 = DIRECTION ( 'NONE',  ( 0.0000000000000000000, 0.0000000000000000000, 1.000000000000000000 ) ) ;
#35 = VERTEX_POINT ( 'NONE', #98 ) ;
#36 = DIRECTION ( 'NONE',  ( 1.000000000000000000, 0.0000000000000000000, 0.0000000000000000000 ) ) ;
#37 = LOCAL_TIME ( 14, 5, 33.00000000000000000, #146 ) ;
#38 = CARTESIAN_POINT ( 'NONE',  ( 0.0000000000000000000, 0.0000000000000000000, 15.00000000000000000 ) ) ;
#39 = CIRCLE ( 'NONE', #245, 5.149999999999987921 ) ;
#40 = AXIS2_PLACEMENT_3D ( 'NONE', #185, #216, #47 ) ;
#41 = VECTOR ( 'NONE', #235, 999.9999999999998863 ) ;
#42 = EDGE_LOOP ( 'NONE', ( #365, #314, #5, #307 ) ) ;
#43 = CARTESIAN_POINT ( 'NONE',  ( 0.0000000000000000000, 0.0000000000000000000, 0.0000000000000000000 ) ) ;
#44 = DIRECTION ( 'NONE',  ( 0.7071067811865474617, 8.659560562354932858E-17, -0.7071067811865474617 ) ) ;
#45 = PERSON ( 'NEURÈENÝ', 'NEURÈENÝ', 'NEURÈENÝ', ('NEURÈENÝ'), ('NEURÈENÝ'), ('NEURÈENÝ') ) ;
#46 = EDGE_CURVE ( 'NONE', #217, #317, #113, .T. ) ;
#47 = DIRECTION ( 'NONE',  ( -1.000000000000000000, 0.0000000000000000000, 0.0000000000000000000 ) ) ;
#48 = PERSON_AND_ORGANIZATION ( #45, #53 ) ;
#49 = FACE_BOUND ( 'NONE', #109, .T. ) ;
#50 = DIRECTION ( 'NONE',  ( 1.000000000000000000, 0.0000000000000000000, 0.0000000000000000000 ) ) ;
#51 = PRODUCT_DEFINITION_FORMATION_WITH_SPECIFIED_SOURCE ( 'LIBOVOLNÝ', '', #320, .NOT_KNOWN. ) ;
#52 = CARTESIAN_POINT ( 'NONE',  ( 0.0000000000000000000, 0.0000000000000000000, 13.99999999999999289 ) ) ;
#53 = ORGANIZATION ( 'NEURÈENÝ', 'NEURÈENÝ', '' ) ;
#54 =( LENGTH_UNIT ( ) NAMED_UNIT ( * ) SI_UNIT ( .MILLI., .METRE. ) );
#55 = VECTOR ( 'NONE', #272, 1000.000000000000000 ) ;
#56 = APPROVAL_ROLE ( '' ) ;
#57 = APPROVAL_ROLE ( '' ) ;
#58 = DIRECTION ( 'NONE',  ( 0.0000000000000000000, 0.0000000000000000000, 1.000000000000000000 ) ) ;
#59 = LOCAL_TIME ( 14, 5, 33.00000000000000000, #25 ) ;
#60 = ORIENTED_EDGE ( 'NONE', *, *, #201, .T. ) ;
#61 = CONICAL_SURFACE ( 'NONE', #145, 6.499999999999994671, 0.7853981633974479459 ) ;
#62 = EDGE_LOOP ( 'NONE', ( #352, #60, #338, #139 ) ) ;
#63 = ORIENTED_EDGE ( 'NONE', *, *, #95, .F. ) ;
#64 = AXIS2_PLACEMENT_3D ( 'NONE', #78, #269, #105 ) ;
#65 = AXIS2_PLACEMENT_3D ( 'NONE', #122, #342, #171 ) ;
#66 = VERTEX_POINT ( 'NONE', #2 ) ;
#67 = DIRECTION ( 'NONE',  ( 0.0000000000000000000, 0.0000000000000000000, 1.000000000000000000 ) ) ;
#68 = CC_DESIGN_APPROVAL ( #107, ( #134 ) ) ;
#69 = CARTESIAN_POINT ( 'NONE',  ( -3.207210893135279688E-15, 0.0000000000000000000, 13.09443218799191655 ) ) ;
#70 = ORIENTED_EDGE ( 'NONE', *, *, #207, .T. ) ;
#71 = EDGE_LOOP ( 'NONE', ( #276, #244, #366, #359 ) ) ;
#72 = DIRECTION ( 'NONE',  ( -0.7071067811865474617, 0.0000000000000000000, -0.7071067811865474617 ) ) ;
#73 = AXIS2_PLACEMENT_3D ( 'NONE', #106, #102, #50 ) ;
#74 = FACE_OUTER_BOUND ( 'NONE', #108, .T. ) ;
#75 = VERTEX_POINT ( 'NONE', #289 ) ;
#76 = CARTESIAN_POINT ( 'NONE',  ( 0.0000000000000000000, 0.0000000000000000000, 15.00000000000000000 ) ) ;
#77 = DIRECTION ( 'NONE',  ( 1.000000000000000000, 0.0000000000000000000, -0.0000000000000000000 ) ) ;
#78 = CARTESIAN_POINT ( 'NONE',  ( 0.0000000000000000000, 0.0000000000000000000, 13.99999999999999289 ) ) ;
#79 = LOCAL_TIME ( 14, 5, 33.00000000000000000, #280 ) ;
#80 = ORIENTED_EDGE ( 'NONE', *, *, #374, .T. ) ;
#81 = CARTESIAN_POINT ( 'NONE',  ( -6.499999999999994671, 0.0000000000000000000, 15.00000000000000000 ) ) ;
#82 = PERSON_AND_ORGANIZATION_ROLE ( 'creator' ) ;
#83 = CC_DESIGN_APPROVAL ( #31, ( #51 ) ) ;
#84 = PERSON_AND_ORGANIZATION_ROLE ( 'design_owner' ) ;
#85 = VECTOR ( 'NONE', #243, 1000.000000000000000 ) ;
#86 = FACE_OUTER_BOUND ( 'NONE', #62, .T. ) ;
#87 = AXIS2_PLACEMENT_3D ( 'NONE', #286, #124, #287 ) ;
#88 = APPROVAL_STATUS ( 'not_yet_approved' ) ;
#89 = ORIENTED_EDGE ( 'NONE', *, *, #313, .T. ) ;
#90 = DIRECTION ( 'NONE',  ( 0.8571673007021125557, 1.049727191138618942E-16, -0.5150380749100536004 ) ) ;
#91 = CIRCLE ( 'NONE', #64, 7.500000000000000000 ) ;
#92 = VERTEX_POINT ( 'NONE', #130 ) ;
#93 = APPROVAL_DATE_TIME ( #99, #107 ) ;
#94 = DIRECTION ( 'NONE',  ( 1.000000000000000000, 0.0000000000000000000, 0.0000000000000000000 ) ) ;
#95 = EDGE_CURVE ( 'NONE', #317, #217, #22, .T. ) ;
#96 = VECTOR ( 'NONE', #226, 1000.000000000000114 ) ;
#97 = CARTESIAN_POINT ( 'NONE',  ( -7.500000000000000000, 0.0000000000000000000, 13.99999999999999289 ) ) ;
#98 = CARTESIAN_POINT ( 'NONE',  ( 5.649999999999985256, 6.919254415182526602E-16, 0.0000000000000000000 ) ) ;
#99 = DATE_AND_TIME ( #273, #239 ) ;
#100 = LINE ( 'NONE', #303, #96 ) ;
#101 = AXIS2_PLACEMENT_3D ( 'NONE', #174, #258, #94 ) ;
#102 = DIRECTION ( 'NONE',  ( 0.0000000000000000000, 0.0000000000000000000, -1.000000000000000000 ) ) ;
#103 = CARTESIAN_POINT ( 'NONE',  ( 6.499999999999994671, 8.572527594031469245E-16, 15.00000000000000000 ) ) ;
#104 = AXIS2_PLACEMENT_3D ( 'NONE', #378, #34, #262 ) ;
#105 = DIRECTION ( 'NONE',  ( 1.000000000000000000, 0.0000000000000000000, 0.0000000000000000000 ) ) ;
#106 = CARTESIAN_POINT ( 'NONE',  ( 0.0000000000000000000, 0.0000000000000000000, 0.4999999999999970024 ) ) ;
#107 = APPROVAL ( #219, 'NEURÈENÝ' ) ;
#108 = EDGE_LOOP ( 'NONE', ( #296, #159, #182 ) ) ;
#109 = EDGE_LOOP ( 'NONE', ( #300, #376 ) ) ;
#110 = CC_DESIGN_PERSON_AND_ORGANIZATION_ASSIGNMENT ( #316, #82, ( #51 ) ) ;
#111 = EDGE_CURVE ( 'NONE', #317, #29, #351, .T. ) ;
#112 = APPLICATION_PROTOCOL_DEFINITION ( 'international standard', 'config_control_design', 1994, #332 ) ;
#113 = CIRCLE ( 'NONE', #136, 6.499999999999994671 ) ;
#114 = DIRECTION ( 'NONE',  ( -0.0000000000000000000, -0.0000000000000000000, -1.000000000000000000 ) ) ;
#115 = ADVANCED_FACE ( 'NONE', ( #167 ), #143, .F. ) ;
#116 = CC_DESIGN_PERSON_AND_ORGANIZATION_ASSIGNMENT ( #379, #198, ( #20 ) ) ;
#117 = CIRCLE ( 'NONE', #123, 7.500000000000000000 ) ;
#118 = EDGE_CURVE ( 'NONE', #75, #66, #331, .T. ) ;
#119 = ORIENTED_EDGE ( 'NONE', *, *, #371, .T. ) ;
#120 = ORIENTED_EDGE ( 'NONE', *, *, #23, .F. ) ;
#121 = LINE ( 'NONE', #183, #194 ) ;
#122 = CARTESIAN_POINT ( 'NONE',  ( 0.0000000000000000000, 0.0000000000000000000, 0.4999999999999970024 ) ) ;
#123 = AXIS2_PLACEMENT_3D ( 'NONE', #52, #250, #200 ) ;
#124 = DIRECTION ( 'NONE',  ( -0.0000000000000000000, -0.0000000000000000000, -1.000000000000000000 ) ) ;
#125 = CARTESIAN_POINT ( 'NONE',  ( 0.0000000000000000000, 0.0000000000000000000, 9.999999999999994671 ) ) ;
#126 = APPROVAL_PERSON_ORGANIZATION ( #202, #31, #56 ) ;
#127 = LINE ( 'NONE', #186, #85 ) ;
#128 = VECTOR ( 'NONE', #90, 1000.000000000000114 ) ;
#129 = AXIS2_PLACEMENT_3D ( 'NONE', #125, #153, #346 ) ;
#130 = CARTESIAN_POINT ( 'NONE',  ( -5.149999999999987921, 0.0000000000000000000, 9.999999999999994671 ) ) ;
#131 = CARTESIAN_POINT ( 'NONE',  ( 0.0000000000000000000, 0.0000000000000000000, 15.00000000000000000 ) ) ;
#132 = CARTESIAN_POINT ( 'NONE',  ( 7.500000000000000000, 9.184850993605147944E-16, 13.99999999999999289 ) ) ;
#133 = APPROVAL_DATE_TIME ( #208, #254 ) ;
#134 = SECURITY_CLASSIFICATION ( '', '', #137 ) ;
#135 = EDGE_LOOP ( 'NONE', ( #4, #70, #259, #7 ) ) ;
#136 = AXIS2_PLACEMENT_3D ( 'NONE', #38, #6, #234 ) ;
#137 = SECURITY_CLASSIFICATION_LEVEL ( 'unclassified' ) ;
#138 = APPLICATION_CONTEXT ( 'configuration controlled 3d designs of mechanical parts and assemblies' ) ;
#139 = ORIENTED_EDGE ( 'NONE', *, *, #111, .F. ) ;
#140 = DIRECTION ( 'NONE',  ( 1.000000000000000000, 0.0000000000000000000, -0.0000000000000000000 ) ) ;
#141 = CC_DESIGN_DATE_AND_TIME_ASSIGNMENT ( #169, #21, ( #134 ) ) ;
#142 = COORDINATED_UNIVERSAL_TIME_OFFSET ( 1, 0, .AHEAD. ) ;
#143 = CONICAL_SURFACE ( 'NONE', #227, 5.149999999999987921, 0.7853981633974482790 ) ;
#144 = ORIENTED_EDGE ( 'NONE', *, *, #46, .T. ) ;
#145 = AXIS2_PLACEMENT_3D ( 'NONE', #76, #323, #294 ) ;
#146 = COORDINATED_UNIVERSAL_TIME_OFFSET ( 1, 0, .AHEAD. ) ;
#147 = CARTESIAN_POINT ( 'NONE',  ( 5.149999999999987921, 6.306931015608854805E-16, 9.999999999999994671 ) ) ;
#148 = VERTEX_POINT ( 'NONE', #69 ) ;
#149 = ADVANCED_FACE ( 'NONE', ( #312 ), #11, .F. ) ;
#150 = EDGE_CURVE ( 'NONE', #35, #284, #232, .T. ) ;
#151 = CYLINDRICAL_SURFACE ( 'NONE', #305, 5.149999999999987921 ) ;
#152 = CLOSED_SHELL ( 'NONE', ( #115, #199, #161, #184, #24, #203, #310, #277, #196, #282, #229, #149 ) ) ;
#153 = DIRECTION ( 'NONE',  ( -0.0000000000000000000, -0.0000000000000000000, -1.000000000000000000 ) ) ;
#154 = CARTESIAN_POINT ( 'NONE',  ( 0.0000000000000000000, 0.0000000000000000000, 0.0000000000000000000 ) ) ;
#155 = AXIS2_PLACEMENT_3D ( 'NONE', #256, #230, #292 ) ;
#156 = DIRECTION ( 'NONE',  ( 0.0000000000000000000, 0.0000000000000000000, -1.000000000000000000 ) ) ;
#157 = DATE_AND_TIME ( #345, #59 ) ;
#158 = CARTESIAN_POINT ( 'NONE',  ( 0.0000000000000000000, 0.0000000000000000000, 15.00000000000000000 ) ) ;
#159 = ORIENTED_EDGE ( 'NONE', *, *, #23, .T. ) ;
#160 = DIRECTION ( 'NONE',  ( -0.0000000000000000000, -0.0000000000000000000, -1.000000000000000000 ) ) ;
#161 = ADVANCED_FACE ( 'NONE', ( #74 ), #275, .F. ) ;
#162 = CC_DESIGN_PERSON_AND_ORGANIZATION_ASSIGNMENT ( #246, #17, ( #134 ) ) ;
#163 = FACE_OUTER_BOUND ( 'NONE', #373, .T. ) ;
#164 = ORIENTED_EDGE ( 'NONE', *, *, #374, .F. ) ;
#165 = DIRECTION ( 'NONE',  ( -0.0000000000000000000, -0.0000000000000000000, -1.000000000000000000 ) ) ;
#166 =( NAMED_UNIT ( * ) SI_UNIT ( $, .STERADIAN. ) SOLID_ANGLE_UNIT ( ) );
#167 = FACE_OUTER_BOUND ( 'NONE', #135, .T. ) ;
#168 = ORIENTED_EDGE ( 'NONE', *, *, #347, .F. ) ;
#169 = DATE_AND_TIME ( #362, #37 ) ;
#170 = VERTEX_POINT ( 'NONE', #132 ) ;
#171 = DIRECTION ( 'NONE',  ( 1.000000000000000000, 0.0000000000000000000, 0.0000000000000000000 ) ) ;
#172 = AXIS2_PLACEMENT_3D ( 'NONE', #368, #302, #363 ) ;
#173 = EDGE_CURVE ( 'NONE', #197, #284, #375, .T. ) ;
#174 = CARTESIAN_POINT ( 'NONE',  ( 0.0000000000000000000, 0.0000000000000000000, 0.0000000000000000000 ) ) ;
#175 = ORIENTED_EDGE ( 'NONE', *, *, #209, .F. ) ;
#176 = CC_DESIGN_SECURITY_CLASSIFICATION ( #134, ( #51 ) ) ;
#177 = VERTEX_POINT ( 'NONE', #13 ) ;
#178 = AXIS2_PLACEMENT_3D ( 'NONE', #268, #298, #190 ) ;
#179 = CARTESIAN_POINT ( 'NONE',  ( -6.499999999999994671, 0.0000000000000000000, 15.00000000000000000 ) ) ;
#180 = CARTESIAN_POINT ( 'NONE',  ( 0.0000000000000000000, 0.0000000000000000000, 0.0000000000000000000 ) ) ;
#181 = EDGE_CURVE ( 'NONE', #29, #170, #91, .T. ) ;
#182 = ORIENTED_EDGE ( 'NONE', *, *, #309, .T. ) ;
#183 = CARTESIAN_POINT ( 'NONE',  ( 6.499999999999994671, 7.960204194457788574E-16, 15.00000000000000000 ) ) ;
#184 = ADVANCED_FACE ( 'NONE', ( #86 ), #61, .T. ) ;
#185 = CARTESIAN_POINT ( 'NONE',  ( 0.0000000000000000000, 0.0000000000000000000, 15.00000000000000000 ) ) ;
#186 = CARTESIAN_POINT ( 'NONE',  ( 7.500000000000000000, 9.184850993605147944E-16, 15.00000000000000000 ) ) ;
#187 = FACE_OUTER_BOUND ( 'NONE', #253, .T. ) ;
#188 = CIRCLE ( 'NONE', #104, 5.649999999999985256 ) ;
#189 = ORIENTED_EDGE ( 'NONE', *, *, #14, .T. ) ;
#190 = DIRECTION ( 'NONE',  ( -1.000000000000000000, 0.0000000000000000000, 0.0000000000000000000 ) ) ;
#191 = AXIS2_PLACEMENT_3D ( 'NONE', #210, #67, #36 ) ;
#192 = MANIFOLD_SOLID_BREP ( 'Zkosení2', #152 ) ;
#193 = CARTESIAN_POINT ( 'NONE',  ( 5.149999999999987921, 6.306931015608854805E-16, 0.0000000000000000000 ) ) ;
#194 = VECTOR ( 'NONE', #356, 999.9999999999998863 ) ;
#195 = APPLICATION_PROTOCOL_DEFINITION ( 'international standard', 'config_control_design', 1994, #138 ) ;
#196 = ADVANCED_FACE ( 'NONE', ( #163 ), #241, .T. ) ;
#197 = VERTEX_POINT ( 'NONE', #266 ) ;
#198 = PERSON_AND_ORGANIZATION_ROLE ( 'creator' ) ;
#199 = ADVANCED_FACE ( 'NONE', ( #330 ), #204, .F. ) ;
#200 = DIRECTION ( 'NONE',  ( 1.000000000000000000, 0.0000000000000000000, 0.0000000000000000000 ) ) ;
#201 = EDGE_CURVE ( 'NONE', #217, #170, #121, .T. ) ;
#202 = PERSON_AND_ORGANIZATION ( #45, #53 ) ;
#203 = ADVANCED_FACE ( 'NONE', ( #306 ), #304, .T. ) ;
#204 = CYLINDRICAL_SURFACE ( 'NONE', #231, 5.149999999999987921 ) ;
#205 = CIRCLE ( 'NONE', #65, 5.149999999999987921 ) ;
#206 = CC_DESIGN_PERSON_AND_ORGANIZATION_ASSIGNMENT ( #355, #84, ( #320 ) ) ;
#207 = EDGE_CURVE ( 'NONE', #238, #35, #9, .T. ) ;
#208 = DATE_AND_TIME ( #372, #290 ) ;
#209 = EDGE_CURVE ( 'NONE', #170, #75, #127, .T. ) ;
#210 = CARTESIAN_POINT ( 'NONE',  ( 0.0000000000000000000, 0.0000000000000000000, 15.00000000000000000 ) ) ;
#211 = CARTESIAN_POINT ( 'NONE',  ( 0.0000000000000000000, 0.0000000000000000000, 0.4999999999999970024 ) ) ;
#212 = ORIENTED_EDGE ( 'NONE', *, *, #111, .T. ) ;
#213 = DIRECTION ( 'NONE',  ( 0.0000000000000000000, 0.0000000000000000000, -1.000000000000000000 ) ) ;
#214 = APPROVAL_PERSON_ORGANIZATION ( #32, #254, #299 ) ;
#215 = CIRCLE ( 'NONE', #73, 5.149999999999987921 ) ;
#216 = DIRECTION ( 'NONE',  ( 0.0000000000000000000, 0.0000000000000000000, -1.000000000000000000 ) ) ;
#217 = VERTEX_POINT ( 'NONE', #103 ) ;
#218 = DATE_AND_TIME ( #341, #79 ) ;
#219 = APPROVAL_STATUS ( 'not_yet_approved' ) ;
#220 = MECHANICAL_CONTEXT ( 'NONE', #332, 'mechanical' ) ;
#221 = PRODUCT_RELATED_PRODUCT_CATEGORY ( 'detail', '', ( #320 ) ) ;
#222 = APPROVAL_STATUS ( 'not_yet_approved' ) ;
#223 = PERSON_AND_ORGANIZATION ( #45, #53 ) ;
#224 = PERSON_AND_ORGANIZATION_ROLE ( 'design_supplier' ) ;
#225 = FACE_OUTER_BOUND ( 'NONE', #288, .T. ) ;
#226 = DIRECTION ( 'NONE',  ( -0.8571673007021125557, 0.0000000000000000000, -0.5150380749100536004 ) ) ;
#227 = AXIS2_PLACEMENT_3D ( 'NONE', #211, #156, #237 ) ;
#228 = ORIENTED_EDGE ( 'NONE', *, *, #319, .T. ) ;
#229 = ADVANCED_FACE ( 'NONE', ( #336 ), #151, .F. ) ;
#230 = DIRECTION ( 'NONE',  ( -0.0000000000000000000, -0.0000000000000000000, -1.000000000000000000 ) ) ;
#231 = AXIS2_PLACEMENT_3D ( 'NONE', #10, #240, #265 ) ;
#232 = CIRCLE ( 'NONE', #101, 5.649999999999985256 ) ;
#233 = UNCERTAINTY_MEASURE_WITH_UNIT (LENGTH_MEASURE( 1.000000000000000082E-05 ), #54, 'distance_accuracy_value', 'NONE');
#234 = DIRECTION ( 'NONE',  ( 1.000000000000000000, 0.0000000000000000000, 0.0000000000000000000 ) ) ;
#235 = DIRECTION ( 'NONE',  ( -0.7071067811865472397, 0.0000000000000000000, -0.7071067811865479058 ) ) ;
#236 = CIRCLE ( 'NONE', #172, 7.500000000000000000 ) ;
#237 = DIRECTION ( 'NONE',  ( -1.000000000000000000, 0.0000000000000000000, 0.0000000000000000000 ) ) ;
#238 = VERTEX_POINT ( 'NONE', #264 ) ;
#239 = LOCAL_TIME ( 14, 5, 33.00000000000000000, #142 ) ;
#240 = DIRECTION ( 'NONE',  ( -0.0000000000000000000, -0.0000000000000000000, -1.000000000000000000 ) ) ;
#241 = CONICAL_SURFACE ( 'NONE', #40, 6.499999999999994671, 0.7853981633974479459 ) ;
#242 = ORIENTED_EDGE ( 'NONE', *, *, #201, .F. ) ;
#243 = DIRECTION ( 'NONE',  ( -0.0000000000000000000, -0.0000000000000000000, -1.000000000000000000 ) ) ;
#244 = ORIENTED_EDGE ( 'NONE', *, *, #255, .F. ) ;
#245 = AXIS2_PLACEMENT_3D ( 'NONE', #274, #114, #328 ) ;
#246 = PERSON_AND_ORGANIZATION ( #45, #53 ) ;
#247 = DIRECTION ( 'NONE',  ( -0.0000000000000000000, -0.0000000000000000000, -1.000000000000000000 ) ) ;
#248 = AXIS2_PLACEMENT_3D ( 'NONE', #154, #315, #350 ) ;
#249 = EDGE_LOOP ( 'NONE', ( #370, #80, #283, #168 ) ) ;
#250 = DIRECTION ( 'NONE',  ( 0.0000000000000000000, 0.0000000000000000000, -1.000000000000000000 ) ) ;
#251 = VECTOR ( 'NONE', #18, 1000.000000000000000 ) ;
#252 = DIRECTION ( 'NONE',  ( 1.000000000000000000, 0.0000000000000000000, 0.0000000000000000000 ) ) ;
#253 = EDGE_LOOP ( 'NONE', ( #267, #144 ) ) ;
#254 = APPROVAL ( #88, 'NEURÈENÝ' ) ;
#255 = EDGE_CURVE ( 'NONE', #197, #238, #215, .T. ) ;
#256 = CARTESIAN_POINT ( 'NONE',  ( 0.0000000000000000000, 0.0000000000000000000, 15.00000000000000000 ) ) ;
#257 = FACE_OUTER_BOUND ( 'NONE', #339, .T. ) ;
#258 = DIRECTION ( 'NONE',  ( 0.0000000000000000000, 0.0000000000000000000, 1.000000000000000000 ) ) ;
#259 = ORIENTED_EDGE ( 'NONE', *, *, #33, .F. ) ;
#260 = AXIS2_PLACEMENT_3D ( 'NONE', #8, #213, #349 ) ;
#261 = APPROVAL_PERSON_ORGANIZATION ( #223, #107, #57 ) ;
#262 = DIRECTION ( 'NONE',  ( 1.000000000000000000, 0.0000000000000000000, 0.0000000000000000000 ) ) ;
#263 = APPROVAL_DATE_TIME ( #218, #31 ) ;
#264 = CARTESIAN_POINT ( 'NONE',  ( 5.149999999999987921, 6.306931015608854805E-16, 0.4999999999999970024 ) ) ;
#265 = DIRECTION ( 'NONE',  ( -1.000000000000000000, 0.0000000000000000000, 0.0000000000000000000 ) ) ;
#266 = CARTESIAN_POINT ( 'NONE',  ( -5.149999999999987921, 0.0000000000000000000, 0.4999999999999970024 ) ) ;
#267 = ORIENTED_EDGE ( 'NONE', *, *, #95, .T. ) ;
#268 = CARTESIAN_POINT ( 'NONE',  ( 0.0000000000000000000, 0.0000000000000000000, 9.999999999999994671 ) ) ;
#269 = DIRECTION ( 'NONE',  ( 0.0000000000000000000, 0.0000000000000000000, -1.000000000000000000 ) ) ;
#270 = SHAPE_DEFINITION_REPRESENTATION ( #357, #335 ) ;
#271 =( NAMED_UNIT ( * ) PLANE_ANGLE_UNIT ( ) SI_UNIT ( $, .RADIAN. ) );
#272 = DIRECTION ( 'NONE',  ( -0.0000000000000000000, -0.0000000000000000000, -1.000000000000000000 ) ) ;
#273 = CALENDAR_DATE ( 2018, 14, 12 ) ;
#274 = CARTESIAN_POINT ( 'NONE',  ( 0.0000000000000000000, 0.0000000000000000000, 9.999999999999994671 ) ) ;
#275 = CONICAL_SURFACE ( 'NONE', #129, 5.149999999999987921, 1.029744258676655200 ) ;
#276 = ORIENTED_EDGE ( 'NONE', *, *, #207, .F. ) ;
#277 = ADVANCED_FACE ( 'NONE', ( #49, #225 ), #295, .F. ) ;
#278 =( GEOMETRIC_REPRESENTATION_CONTEXT ( 3 ) GLOBAL_UNCERTAINTY_ASSIGNED_CONTEXT ( ( #233 ) ) GLOBAL_UNIT_ASSIGNED_CONTEXT ( ( #54, #271, #166 ) ) REPRESENTATION_CONTEXT ( 'NONE', 'WORKASPACE' ) );
#279 = EDGE_LOOP ( 'NONE', ( #164, #28, #12, #318 ) ) ;
#280 = COORDINATED_UNIVERSAL_TIME_OFFSET ( 1, 0, .AHEAD. ) ;
#281 = LINE ( 'NONE', #334, #55 ) ;
#282 = ADVANCED_FACE ( 'NONE', ( #257 ), #325, .F. ) ;
#283 = ORIENTED_EDGE ( 'NONE', *, *, #3, .T. ) ;
#284 = VERTEX_POINT ( 'NONE', #353 ) ;
#285 = CC_DESIGN_PERSON_AND_ORGANIZATION_ASSIGNMENT ( #48, #224, ( #51 ) ) ;
#286 = CARTESIAN_POINT ( 'NONE',  ( 0.0000000000000000000, 0.0000000000000000000, 9.999999999999994671 ) ) ;
#287 = DIRECTION ( 'NONE',  ( -1.000000000000000000, 0.0000000000000000000, 0.0000000000000000000 ) ) ;
#288 = EDGE_LOOP ( 'NONE', ( #308, #333 ) ) ;
#289 = CARTESIAN_POINT ( 'NONE',  ( 7.500000000000000000, 9.184850993605147944E-16, 0.0000000000000000000 ) ) ;
#290 = LOCAL_TIME ( 14, 5, 33.00000000000000000, #324 ) ;
#291 = ORIENTED_EDGE ( 'NONE', *, *, #313, .F. ) ;
#292 = DIRECTION ( 'NONE',  ( -1.000000000000000000, 0.0000000000000000000, 0.0000000000000000000 ) ) ;
#293 = DIRECTION ( 'NONE',  ( 0.0000000000000000000, 0.0000000000000000000, 1.000000000000000000 ) ) ;
#294 = DIRECTION ( 'NONE',  ( -1.000000000000000000, 0.0000000000000000000, 0.0000000000000000000 ) ) ;
#295 = PLANE ( 'NONE',  #361 ) ;
#296 = ORIENTED_EDGE ( 'NONE', *, *, #371, .F. ) ;
#297 = DIRECTION ( 'NONE',  ( -1.000000000000000000, 0.0000000000000000000, 0.0000000000000000000 ) ) ;
#298 = DIRECTION ( 'NONE',  ( -0.0000000000000000000, -0.0000000000000000000, -1.000000000000000000 ) ) ;
#299 = APPROVAL_ROLE ( '' ) ;
#300 = ORIENTED_EDGE ( 'NONE', *, *, #33, .T. ) ;
#301 = DIRECTION ( 'NONE',  ( 0.0000000000000000000, 0.0000000000000000000, 1.000000000000000000 ) ) ;
#302 = DIRECTION ( 'NONE',  ( 0.0000000000000000000, 0.0000000000000000000, 1.000000000000000000 ) ) ;
#303 = CARTESIAN_POINT ( 'NONE',  ( -5.149999999999987921, 0.0000000000000000000, 9.999999999999994671 ) ) ;
#304 = CYLINDRICAL_SURFACE ( 'NONE', #337, 7.500000000000000000 ) ;
#305 = AXIS2_PLACEMENT_3D ( 'NONE', #180, #247, #297 ) ;
#306 = FACE_OUTER_BOUND ( 'NONE', #348, .T. ) ;
#307 = ORIENTED_EDGE ( 'NONE', *, *, #319, .F. ) ;
#308 = ORIENTED_EDGE ( 'NONE', *, *, #340, .F. ) ;
#309 = EDGE_CURVE ( 'NONE', #177, #92, #39, .T. ) ;
#310 = ADVANCED_FACE ( 'NONE', ( #187 ), #360, .T. ) ;
#311 = VECTOR ( 'NONE', #44, 1000.000000000000114 ) ;
#312 = FACE_OUTER_BOUND ( 'NONE', #71, .T. ) ;
#313 = EDGE_CURVE ( 'NONE', #170, #29, #117, .T. ) ;
#314 = ORIENTED_EDGE ( 'NONE', *, *, #209, .T. ) ;
#315 = DIRECTION ( 'NONE',  ( 0.0000000000000000000, 0.0000000000000000000, 1.000000000000000000 ) ) ;
#316 = PERSON_AND_ORGANIZATION ( #45, #53 ) ;
#317 = VERTEX_POINT ( 'NONE', #81 ) ;
#318 = ORIENTED_EDGE ( 'NONE', *, *, #255, .T. ) ;
#319 = EDGE_CURVE ( 'NONE', #29, #66, #364, .T. ) ;
#320 = PRODUCT ( 'A10_0015-010', 'A10_0015-010', '', ( #220 ) ) ;
#321 = CC_DESIGN_DATE_AND_TIME_ASSIGNMENT ( #157, #19, ( #20 ) ) ;
#322 = CARTESIAN_POINT ( 'NONE',  ( -5.149999999999987921, 0.0000000000000000000, 0.4999999999999970024 ) ) ;
#323 = DIRECTION ( 'NONE',  ( 0.0000000000000000000, 0.0000000000000000000, -1.000000000000000000 ) ) ;
#324 = COORDINATED_UNIVERSAL_TIME_OFFSET ( 1, 0, .AHEAD. ) ;
#325 = CONICAL_SURFACE ( 'NONE', #178, 5.149999999999987921, 1.029744258676655200 ) ;
#326 = CARTESIAN_POINT ( 'NONE',  ( 5.149999999999987921, 6.306931015608854805E-16, 0.4999999999999970024 ) ) ;
#327 = ORIENTED_EDGE ( 'NONE', *, *, #340, .T. ) ;
#328 = DIRECTION ( 'NONE',  ( -1.000000000000000000, 0.0000000000000000000, 0.0000000000000000000 ) ) ;
#329 = CARTESIAN_POINT ( 'NONE',  ( -7.500000000000000000, 0.0000000000000000000, 15.00000000000000000 ) ) ;
#330 = FACE_OUTER_BOUND ( 'NONE', #249, .T. ) ;
#331 = CIRCLE ( 'NONE', #248, 7.500000000000000000 ) ;
#332 = APPLICATION_CONTEXT ( 'configuration controlled 3d designs of mechanical parts and assemblies' ) ;
#333 = ORIENTED_EDGE ( 'NONE', *, *, #118, .F. ) ;
#334 = CARTESIAN_POINT ( 'NONE',  ( -5.149999999999987921, 0.0000000000000000000, 0.0000000000000000000 ) ) ;
#335 = ADVANCED_BREP_SHAPE_REPRESENTATION ( 'A10_0015-010', ( #192, #344 ), #278 ) ;
#336 = FACE_OUTER_BOUND ( 'NONE', #279, .T. ) ;
#337 = AXIS2_PLACEMENT_3D ( 'NONE', #131, #160, #354 ) ;
#338 = ORIENTED_EDGE ( 'NONE', *, *, #181, .F. ) ;
#339 = EDGE_LOOP ( 'NONE', ( #120, #119, #189 ) ) ;
#340 = EDGE_CURVE ( 'NONE', #66, #75, #236, .T. ) ;
#341 = CALENDAR_DATE ( 2018, 14, 12 ) ;
#342 = DIRECTION ( 'NONE',  ( 0.0000000000000000000, 0.0000000000000000000, -1.000000000000000000 ) ) ;
#343 = CIRCLE ( 'NONE', #87, 5.149999999999987921 ) ;
#344 = AXIS2_PLACEMENT_3D ( 'NONE', #367, #58, #252 ) ;
#345 = CALENDAR_DATE ( 2018, 14, 12 ) ;
#346 = DIRECTION ( 'NONE',  ( -1.000000000000000000, 0.0000000000000000000, 0.0000000000000000000 ) ) ;
#347 = EDGE_CURVE ( 'NONE', #92, #197, #281, .T. ) ;
#348 = EDGE_LOOP ( 'NONE', ( #175, #89, #228, #327 ) ) ;
#349 = DIRECTION ( 'NONE',  ( -1.000000000000000000, 0.0000000000000000000, 0.0000000000000000000 ) ) ;
#350 = DIRECTION ( 'NONE',  ( 1.000000000000000000, 0.0000000000000000000, 0.0000000000000000000 ) ) ;
#351 = LINE ( 'NONE', #179, #41 ) ;
#352 = ORIENTED_EDGE ( 'NONE', *, *, #46, .F. ) ;
#353 = CARTESIAN_POINT ( 'NONE',  ( -5.649999999999985256, 0.0000000000000000000, 0.0000000000000000000 ) ) ;
#354 = DIRECTION ( 'NONE',  ( -1.000000000000000000, 0.0000000000000000000, 0.0000000000000000000 ) ) ;
#355 = PERSON_AND_ORGANIZATION ( #45, #53 ) ;
#356 = DIRECTION ( 'NONE',  ( 0.7071067811865472397, 8.659560562354930393E-17, -0.7071067811865479058 ) ) ;
#357 = PRODUCT_DEFINITION_SHAPE ( 'NONE', 'NONE',  #20 ) ;
#358 = VECTOR ( 'NONE', #72, 1000.000000000000114 ) ;
#359 = ORIENTED_EDGE ( 'NONE', *, *, #150, .F. ) ;
#360 = PLANE ( 'NONE',  #377 ) ;
#361 = AXIS2_PLACEMENT_3D ( 'NONE', #43, #293, #77 ) ;
#362 = CALENDAR_DATE ( 2018, 14, 12 ) ;
#363 = DIRECTION ( 'NONE',  ( 1.000000000000000000, 0.0000000000000000000, 0.0000000000000000000 ) ) ;
#364 = LINE ( 'NONE', #329, #27 ) ;
#365 = ORIENTED_EDGE ( 'NONE', *, *, #181, .T. ) ;
#366 = ORIENTED_EDGE ( 'NONE', *, *, #173, .T. ) ;
#367 = CARTESIAN_POINT ( 'NONE',  ( 0.0000000000000000000, 0.0000000000000000000, 0.0000000000000000000 ) ) ;
#368 = CARTESIAN_POINT ( 'NONE',  ( 0.0000000000000000000, 0.0000000000000000000, 0.0000000000000000000 ) ) ;
#369 = LINE ( 'NONE', #147, #128 ) ;
#370 = ORIENTED_EDGE ( 'NONE', *, *, #309, .F. ) ;
#371 = EDGE_CURVE ( 'NONE', #148, #92, #100, .T. ) ;
#372 = CALENDAR_DATE ( 2018, 14, 12 ) ;
#373 = EDGE_LOOP ( 'NONE', ( #242, #63, #212, #291 ) ) ;
#374 = EDGE_CURVE ( 'NONE', #177, #238, #1, .T. ) ;
#375 = LINE ( 'NONE', #322, #358 ) ;
#376 = ORIENTED_EDGE ( 'NONE', *, *, #150, .T. ) ;
#377 = AXIS2_PLACEMENT_3D ( 'NONE', #158, #301, #140 ) ;
#378 = CARTESIAN_POINT ( 'NONE',  ( 0.0000000000000000000, 0.0000000000000000000, 0.0000000000000000000 ) ) ;
#379 = PERSON_AND_ORGANIZATION ( #45, #53 ) ;
ENDSEC;
END-ISO-10303-21;
