ISO-10303-21;
HEADER;
FILE_DESCRIPTION (( 'STEP AP203' ),
    '1' );
FILE_NAME ('A10_0015-014.STEP',
    '2023-05-29T12:17:30',
    ( '' ),
    ( '' ),
    'SwSTEP 2.0',
    'SolidWorks 2019',
    '' );
FILE_SCHEMA (( 'CONFIG_CONTROL_DESIGN' ));
ENDSEC;

DATA;
#1 = APPROVAL_STATUS ( 'not_yet_approved' ) ;
#2 = EDGE_CURVE ( 'NONE', #230, #113, #377, .T. ) ;
#3 = CARTESIAN_POINT ( 'NONE',  ( 8.756224613903573545E-16, 10.00000000000000000, 7.149999999999998579 ) ) ;
#4 = DIRECTION ( 'NONE',  ( -0.000000000000000000, -1.000000000000000000, -0.000000000000000000 ) ) ;
#5 = VECTOR ( 'NONE', #324, 1000.000000000000114 ) ;
#6 = CARTESIAN_POINT ( 'NONE',  ( 0.000000000000000000, 0.000000000000000000, 0.000000000000000000 ) ) ;
#7 = ADVANCED_FACE ( 'NONE', ( #264 ), #323, .F. ) ;
#8 = DIRECTION ( 'NONE',  ( 0.000000000000000000, 0.000000000000000000, -1.000000000000000000 ) ) ;
#9 = FACE_OUTER_BOUND ( 'NONE', #80, .T. ) ;
#10 = DIRECTION ( 'NONE',  ( 0.000000000000000000, 0.000000000000000000, -1.000000000000000000 ) ) ;
#11 = DIRECTION ( 'NONE',  ( 0.000000000000000000, 0.000000000000000000, -1.000000000000000000 ) ) ;
#12 = APPROVAL_ROLE ( '' ) ;
#13 = SECURITY_CLASSIFICATION_LEVEL ( 'unclassified' ) ;
#14 = ORIENTED_EDGE ( 'NONE', *, *, #36, .F. ) ;
#15 = CC_DESIGN_PERSON_AND_ORGANIZATION_ASSIGNMENT ( #169, #279, ( #97 ) ) ;
#16 = DIRECTION ( 'NONE',  ( 1.000000000000000000, 0.000000000000000000, 0.000000000000000000 ) ) ;
#17 = ORIENTED_EDGE ( 'NONE', *, *, #122, .T. ) ;
#18 = DATE_TIME_ROLE ( 'creation_date' ) ;
#19 = AXIS2_PLACEMENT_3D ( 'NONE', #165, #356, #219 ) ;
#20 = ORIENTED_EDGE ( 'NONE', *, *, #52, .T. ) ;
#21 = CALENDAR_DATE ( 2023, 29, 5 ) ;
#22 = APPROVAL ( #76, 'NEURÈENÝ' ) ;
#23 = VERTEX_POINT ( 'NONE', #239 ) ;
#24 =( GEOMETRIC_REPRESENTATION_CONTEXT ( 3 ) GLOBAL_UNCERTAINTY_ASSIGNED_CONTEXT ( ( #370 ) ) GLOBAL_UNIT_ASSIGNED_CONTEXT ( ( #342, #114, #81 ) ) REPRESENTATION_CONTEXT ( 'NONE', 'WORKASPACE' ) );
#25 = ORIENTED_EDGE ( 'NONE', *, *, #222, .F. ) ;
#26 = CC_DESIGN_SECURITY_CLASSIFICATION ( #77, ( #97 ) ) ;
#27 = APPROVAL_DATE_TIME ( #126, #278 ) ;
#28 = DIRECTION ( 'NONE',  ( 0.000000000000000000, 0.000000000000000000, -1.000000000000000000 ) ) ;
#29 = LINE ( 'NONE', #346, #104 ) ;
#30 = EDGE_CURVE ( 'NONE', #343, #23, #34, .T. ) ;
#31 = DIRECTION ( 'NONE',  ( 0.000000000000000000, -1.000000000000000000, 0.000000000000000000 ) ) ;
#32 = DIRECTION ( 'NONE',  ( 0.000000000000000000, 0.000000000000000000, -1.000000000000000000 ) ) ;
#33 = CIRCLE ( 'NONE', #53, 7.650000000000007461 ) ;
#34 = CIRCLE ( 'NONE', #88, 7.149999999999998579 ) ;
#35 = ORIENTED_EDGE ( 'NONE', *, *, #329, .F. ) ;
#36 = EDGE_CURVE ( 'NONE', #233, #110, #160, .T. ) ;
#37 = CONICAL_SURFACE ( 'NONE', #73, 8.000000000000000000, 0.7853981633974482790 ) ;
#38 = CARTESIAN_POINT ( 'NONE',  ( 0.000000000000000000, 15.00000000000000000, 0.000000000000000000 ) ) ;
#39 = CARTESIAN_POINT ( 'NONE',  ( 8.756224613903573545E-16, 0.5000000000000047740, 7.149999999999999467 ) ) ;
#40 = APPLICATION_CONTEXT ( 'configuration controlled 3d designs of mechanical parts and assemblies' ) ;
#41 = DIRECTION ( 'NONE',  ( 0.000000000000000000, 0.000000000000000000, -1.000000000000000000 ) ) ;
#42 = VECTOR ( 'NONE', #65, 1000.000000000000114 ) ;
#43 = DIRECTION ( 'NONE',  ( 0.000000000000000000, 0.000000000000000000, -1.000000000000000000 ) ) ;
#44 = CYLINDRICAL_SURFACE ( 'NONE', #348, 7.149999999999999467 ) ;
#45 = DATE_AND_TIME ( #311, #273 ) ;
#46 = ORIENTED_EDGE ( 'NONE', *, *, #139, .F. ) ;
#47 = EDGE_CURVE ( 'NONE', #374, #259, #71, .T. ) ;
#48 = DIRECTION ( 'NONE',  ( 0.000000000000000000, 0.000000000000000000, -1.000000000000000000 ) ) ;
#49 = ORIENTED_EDGE ( 'NONE', *, *, #47, .F. ) ;
#50 = CALENDAR_DATE ( 2023, 29, 5 ) ;
#51 = ORIENTED_EDGE ( 'NONE', *, *, #329, .T. ) ;
#52 = EDGE_CURVE ( 'NONE', #144, #343, #189, .T. ) ;
#53 = AXIS2_PLACEMENT_3D ( 'NONE', #168, #271, #303 ) ;
#54 = ORIENTED_EDGE ( 'NONE', *, *, #52, .F. ) ;
#55 = VECTOR ( 'NONE', #125, 1000.000000000000114 ) ;
#56 = ORIENTED_EDGE ( 'NONE', *, *, #106, .T. ) ;
#57 = AXIS2_PLACEMENT_3D ( 'NONE', #299, #66, #41 ) ;
#58 = FACE_OUTER_BOUND ( 'NONE', #282, .T. ) ;
#59 = APPROVAL_PERSON_ORGANIZATION ( #109, #22, #231 ) ;
#60 = CARTESIAN_POINT ( 'NONE',  ( 0.000000000000000000, 15.00000000000000000, 0.000000000000000000 ) ) ;
#61 = EDGE_CURVE ( 'NONE', #307, #259, #29, .T. ) ;
#62 = CARTESIAN_POINT ( 'NONE',  ( 0.000000000000000000, -7.601255994707581159E-17, 0.000000000000000000 ) ) ;
#63 = FACE_OUTER_BOUND ( 'NONE', #227, .T. ) ;
#64 = CARTESIAN_POINT ( 'NONE',  ( 0.000000000000000000, 13.99999999999999822, 0.000000000000000000 ) ) ;
#65 = DIRECTION ( 'NONE',  ( 0.000000000000000000, -0.7071067811865474617, -0.7071067811865474617 ) ) ;
#66 = DIRECTION ( 'NONE',  ( 0.000000000000000000, -1.000000000000000000, 0.000000000000000000 ) ) ;
#67 = ADVANCED_BREP_SHAPE_REPRESENTATION ( 'A10_0015-014', ( #373, #334 ), #24 ) ;
#68 = LINE ( 'NONE', #74, #210 ) ;
#69 = EDGE_CURVE ( 'NONE', #110, #233, #314, .T. ) ;
#70 = AXIS2_PLACEMENT_3D ( 'NONE', #321, #31, #345 ) ;
#71 = CIRCLE ( 'NONE', #267, 8.000000000000001776 ) ;
#72 = DIRECTION ( 'NONE',  ( -0.000000000000000000, -1.000000000000000000, -0.000000000000000000 ) ) ;
#73 = AXIS2_PLACEMENT_3D ( 'NONE', #137, #72, #43 ) ;
#74 = CARTESIAN_POINT ( 'NONE',  ( 8.756224613903573545E-16, 0.000000000000000000, 7.149999999999999467 ) ) ;
#75 = ADVANCED_FACE ( 'NONE', ( #58 ), #361, .T. ) ;
#76 = APPROVAL_STATUS ( 'not_yet_approved' ) ;
#77 = SECURITY_CLASSIFICATION ( '', '', #13 ) ;
#78 = EDGE_LOOP ( 'NONE', ( #262, #51 ) ) ;
#79 = DIRECTION ( 'NONE',  ( -0.000000000000000000, -1.000000000000000000, -0.000000000000000000 ) ) ;
#80 = EDGE_LOOP ( 'NONE', ( #257, #198, #49, #25 ) ) ;
#81 =( NAMED_UNIT ( * ) SI_UNIT ( $, .STERADIAN. ) SOLID_ANGLE_UNIT ( ) );
#82 = ORIENTED_EDGE ( 'NONE', *, *, #139, .T. ) ;
#83 = APPROVAL_STATUS ( 'not_yet_approved' ) ;
#84 = ORIENTED_EDGE ( 'NONE', *, *, #254, .F. ) ;
#85 = DATE_AND_TIME ( #21, #366 ) ;
#86 = AXIS2_PLACEMENT_3D ( 'NONE', #190, #322, #295 ) ;
#87 = ORIENTED_EDGE ( 'NONE', *, *, #30, .F. ) ;
#88 = AXIS2_PLACEMENT_3D ( 'NONE', #291, #186, #235 ) ;
#89 = CARTESIAN_POINT ( 'NONE',  ( 0.000000000000000000, 10.00000000000000000, 0.000000000000000000 ) ) ;
#90 = ADVANCED_FACE ( 'NONE', ( #290 ), #293, .F. ) ;
#91 = DIRECTION ( 'NONE',  ( -0.000000000000000000, -1.000000000000000000, -0.000000000000000000 ) ) ;
#92 = EDGE_LOOP ( 'NONE', ( #261, #280, #180, #309 ) ) ;
#93 = AXIS2_PLACEMENT_3D ( 'NONE', #379, #213, #215 ) ;
#94 = DIRECTION ( 'NONE',  ( 0.000000000000000000, 0.000000000000000000, -1.000000000000000000 ) ) ;
#95 = VECTOR ( 'NONE', #368, 1000.000000000000114 ) ;
#96 = DIRECTION ( 'NONE',  ( -0.000000000000000000, -1.000000000000000000, -0.000000000000000000 ) ) ;
#97 = PRODUCT_DEFINITION_FORMATION_WITH_SPECIFIED_SOURCE ( 'LIBOVOLNÝ', '', #166, .NOT_KNOWN. ) ;
#98 = CARTESIAN_POINT ( 'NONE',  ( 0.000000000000000000, 0.000000000000000000, 0.000000000000000000 ) ) ;
#99 = CARTESIAN_POINT ( 'NONE',  ( 0.000000000000000000, -3.800627997353790580E-17, 0.000000000000000000 ) ) ;
#100 = DIRECTION ( 'NONE',  ( 0.000000000000000000, 0.000000000000000000, -1.000000000000000000 ) ) ;
#101 = ADVANCED_FACE ( 'NONE', ( #266 ), #159, .F. ) ;
#102 = CARTESIAN_POINT ( 'NONE',  ( 0.000000000000000000, 10.00000000000000000, 0.000000000000000000 ) ) ;
#103 = AXIS2_PLACEMENT_3D ( 'NONE', #248, #297, #276 ) ;
#104 = VECTOR ( 'NONE', #184, 1000.000000000000000 ) ;
#105 = DIRECTION ( 'NONE',  ( -0.000000000000000000, -1.000000000000000000, -0.000000000000000000 ) ) ;
#106 = EDGE_CURVE ( 'NONE', #144, #23, #211, .T. ) ;
#107 = VECTOR ( 'NONE', #247, 1000.000000000000000 ) ;
#108 = DESIGN_CONTEXT ( 'detailed design', #40, 'design' ) ;
#109 = PERSON_AND_ORGANIZATION ( #171, #164 ) ;
#110 = VERTEX_POINT ( 'NONE', #155 ) ;
#111 = PRODUCT_DEFINITION_SHAPE ( 'NONE', 'NONE',  #289 ) ;
#112 = LOCAL_TIME ( 14, 17, 30.00000000000000000, #183 ) ;
#113 = VERTEX_POINT ( 'NONE', #351 ) ;
#114 =( NAMED_UNIT ( * ) PLANE_ANGLE_UNIT ( ) SI_UNIT ( $, .RADIAN. ) );
#115 = ORIENTED_EDGE ( 'NONE', *, *, #200, .T. ) ;
#116 = CARTESIAN_POINT ( 'NONE',  ( 0.000000000000000000, 0.5000000000000047740, -7.149999999999999467 ) ) ;
#117 = ORIENTED_EDGE ( 'NONE', *, *, #228, .T. ) ;
#118 = PRODUCT_RELATED_PRODUCT_CATEGORY ( 'detail', '', ( #166 ) ) ;
#119 = APPLICATION_PROTOCOL_DEFINITION ( 'international standard', 'config_control_design', 1994, #355 ) ;
#120 = VERTEX_POINT ( 'NONE', #378 ) ;
#121 = ORIENTED_EDGE ( 'NONE', *, *, #30, .T. ) ;
#122 = EDGE_CURVE ( 'NONE', #343, #120, #124, .T. ) ;
#123 = PERSON_AND_ORGANIZATION_ROLE ( 'classification_officer' ) ;
#124 = LINE ( 'NONE', #237, #328 ) ;
#125 = DIRECTION ( 'NONE',  ( 8.659560562354962440E-17, -0.7071067811865451302, 0.7071067811865500152 ) ) ;
#126 = DATE_AND_TIME ( #152, #112 ) ;
#127 = FACE_BOUND ( 'NONE', #78, .T. ) ;
#128 = ADVANCED_FACE ( 'NONE', ( #127, #242 ), #350, .T. ) ;
#129 = CIRCLE ( 'NONE', #103, 8.000000000000000000 ) ;
#130 = AXIS2_PLACEMENT_3D ( 'NONE', #64, #263, #32 ) ;
#131 = CARTESIAN_POINT ( 'NONE',  ( 0.000000000000000000, 10.00000000000000000, -7.149999999999998579 ) ) ;
#132 = FACE_OUTER_BOUND ( 'NONE', #336, .T. ) ;
#133 = APPROVAL_PERSON_ORGANIZATION ( #349, #278, #188 ) ;
#134 = CARTESIAN_POINT ( 'NONE',  ( 9.797174393178825657E-16, 13.99999999999999822, 8.000000000000000000 ) ) ;
#135 = ADVANCED_FACE ( 'NONE', ( #63 ), #145, .F. ) ;
#136 = DIRECTION ( 'NONE',  ( 0.000000000000000000, -1.000000000000000000, 0.000000000000000000 ) ) ;
#137 = CARTESIAN_POINT ( 'NONE',  ( 0.000000000000000000, 13.99999999999999822, 0.000000000000000000 ) ) ;
#138 = DIRECTION ( 'NONE',  ( -0.000000000000000000, -1.000000000000000000, -0.000000000000000000 ) ) ;
#139 = EDGE_CURVE ( 'NONE', #120, #230, #206, .T. ) ;
#140 = APPROVAL_DATE_TIME ( #45, #275 ) ;
#141 = APPLICATION_PROTOCOL_DEFINITION ( 'international standard', 'config_control_design', 1994, #40 ) ;
#142 = ORIENTED_EDGE ( 'NONE', *, *, #36, .T. ) ;
#143 = PERSON_AND_ORGANIZATION ( #171, #164 ) ;
#144 = VERTEX_POINT ( 'NONE', #223 ) ;
#145 = CONICAL_SURFACE ( 'NONE', #224, 7.149999999999998579, 1.029744258676653867 ) ;
#146 = EDGE_CURVE ( 'NONE', #161, #113, #33, .T. ) ;
#147 = CARTESIAN_POINT ( 'NONE',  ( 0.000000000000000000, 0.000000000000000000, 0.000000000000000000 ) ) ;
#148 = EDGE_LOOP ( 'NONE', ( #305, #14 ) ) ;
#149 = AXIS2_PLACEMENT_3D ( 'NONE', #306, #284, #48 ) ;
#150 = DIRECTION ( 'NONE',  ( 0.000000000000000000, 0.000000000000000000, -1.000000000000000000 ) ) ;
#151 = ORIENTED_EDGE ( 'NONE', *, *, #339, .T. ) ;
#152 = CALENDAR_DATE ( 2023, 29, 5 ) ;
#153 = ORIENTED_EDGE ( 'NONE', *, *, #344, .T. ) ;
#154 = SHAPE_DEFINITION_REPRESENTATION ( #111, #67 ) ;
#155 = CARTESIAN_POINT ( 'NONE',  ( 0.000000000000000000, 15.00000000000000000, -6.999999999999999112 ) ) ;
#156 = DIRECTION ( 'NONE',  ( 0.000000000000000000, 0.000000000000000000, -1.000000000000000000 ) ) ;
#157 = DIRECTION ( 'NONE',  ( 0.000000000000000000, 0.000000000000000000, -1.000000000000000000 ) ) ;
#158 = CARTESIAN_POINT ( 'NONE',  ( 0.000000000000000000, 10.00000000000000000, 0.000000000000000000 ) ) ;
#159 = CONICAL_SURFACE ( 'NONE', #251, 7.149999999999998579, 1.029744258676653867 ) ;
#160 = CIRCLE ( 'NONE', #207, 6.999999999999999112 ) ;
#161 = VERTEX_POINT ( 'NONE', #220 ) ;
#162 = CIRCLE ( 'NONE', #149, 8.000000000000001776 ) ;
#163 = DIRECTION ( 'NONE',  ( 0.000000000000000000, 1.000000000000000000, 0.000000000000000000 ) ) ;
#164 = ORGANIZATION ( 'NEURÈENÝ', 'NEURÈENÝ', '' ) ;
#165 = CARTESIAN_POINT ( 'NONE',  ( 0.000000000000000000, 0.000000000000000000, 0.000000000000000000 ) ) ;
#166 = PRODUCT ( 'A10_0015-014', 'A10_0015-014', '', ( #364 ) ) ;
#167 = DIRECTION ( 'NONE',  ( 0.000000000000000000, -0.000000000000000000, 1.000000000000000000 ) ) ;
#168 = CARTESIAN_POINT ( 'NONE',  ( 0.000000000000000000, -3.800627997353790580E-17, 0.000000000000000000 ) ) ;
#169 = PERSON_AND_ORGANIZATION ( #171, #164 ) ;
#170 = EDGE_LOOP ( 'NONE', ( #54, #56, #115 ) ) ;
#171 = PERSON ( 'NEURÈENÝ', 'NEURÈENÝ', 'NEURÈENÝ', ('NEURÈENÝ'), ('NEURÈENÝ'), ('NEURÈENÝ') ) ;
#172 = DIRECTION ( 'NONE',  ( 0.000000000000000000, 0.000000000000000000, -1.000000000000000000 ) ) ;
#173 = ORIENTED_EDGE ( 'NONE', *, *, #339, .F. ) ;
#174 = ADVANCED_FACE ( 'NONE', ( #195 ), #44, .F. ) ;
#175 = DATE_AND_TIME ( #50, #375 ) ;
#176 = EDGE_LOOP ( 'NONE', ( #204, #46, #151, #35 ) ) ;
#177 = AXIS2_PLACEMENT_3D ( 'NONE', #250, #359, #100 ) ;
#178 = ORIENTED_EDGE ( 'NONE', *, *, #69, .T. ) ;
#179 = CC_DESIGN_PERSON_AND_ORGANIZATION_ASSIGNMENT ( #216, #123, ( #77 ) ) ;
#180 = ORIENTED_EDGE ( 'NONE', *, *, #205, .T. ) ;
#181 = DIRECTION ( 'NONE',  ( 1.049727191138618326E-16, -0.5150380749100547106, 0.8571673007021120005 ) ) ;
#182 = APPROVAL_PERSON_ORGANIZATION ( #340, #275, #12 ) ;
#183 = COORDINATED_UNIVERSAL_TIME_OFFSET ( 1, 0, .AHEAD. ) ;
#184 = DIRECTION ( 'NONE',  ( -0.000000000000000000, -1.000000000000000000, -0.000000000000000000 ) ) ;
#185 = DATE_TIME_ROLE ( 'classification_date' ) ;
#186 = DIRECTION ( 'NONE',  ( -0.000000000000000000, -1.000000000000000000, -0.000000000000000000 ) ) ;
#187 = ADVANCED_FACE ( 'NONE', ( #132 ), #300, .T. ) ;
#188 = APPROVAL_ROLE ( '' ) ;
#189 = LINE ( 'NONE', #131, #294 ) ;
#190 = CARTESIAN_POINT ( 'NONE',  ( 8.000000000000001776, -3.800627997353790580E-17, 0.000000000000000000 ) ) ;
#191 = FACE_OUTER_BOUND ( 'NONE', #176, .T. ) ;
#192 = CARTESIAN_POINT ( 'NONE',  ( 0.000000000000000000, 13.99999999999999822, -8.000000000000000000 ) ) ;
#193 = DIRECTION ( 'NONE',  ( -0.000000000000000000, -1.000000000000000000, -0.000000000000000000 ) ) ;
#194 = CIRCLE ( 'NONE', #313, 7.149999999999998579 ) ;
#195 = FACE_OUTER_BOUND ( 'NONE', #92, .T. ) ;
#196 = CARTESIAN_POINT ( 'NONE',  ( 9.797174393178827630E-16, -7.601255994707581159E-17, 8.000000000000001776 ) ) ;
#197 = CC_DESIGN_APPROVAL ( #278, ( #77 ) ) ;
#198 = ORIENTED_EDGE ( 'NONE', *, *, #61, .T. ) ;
#199 = VERTEX_POINT ( 'NONE', #192 ) ;
#200 = EDGE_CURVE ( 'NONE', #23, #343, #194, .T. ) ;
#201 = APPROVAL_DATE_TIME ( #85, #22 ) ;
#202 = ORIENTED_EDGE ( 'NONE', *, *, #2, .T. ) ;
#203 = COORDINATED_UNIVERSAL_TIME_OFFSET ( 1, 0, .AHEAD. ) ;
#204 = ORIENTED_EDGE ( 'NONE', *, *, #2, .F. ) ;
#205 = EDGE_CURVE ( 'NONE', #230, #120, #283, .T. ) ;
#206 = CIRCLE ( 'NONE', #240, 7.149999999999999467 ) ;
#207 = AXIS2_PLACEMENT_3D ( 'NONE', #60, #268, #28 ) ;
#208 = COORDINATED_UNIVERSAL_TIME_OFFSET ( 1, 0, .AHEAD. ) ;
#209 = ORIENTED_EDGE ( 'NONE', *, *, #367, .T. ) ;
#210 = VECTOR ( 'NONE', #193, 1000.000000000000000 ) ;
#211 = LINE ( 'NONE', #3, #360 ) ;
#212 = DIRECTION ( 'NONE',  ( -0.000000000000000000, -1.000000000000000000, -0.000000000000000000 ) ) ;
#213 = DIRECTION ( 'NONE',  ( -0.000000000000000000, -1.000000000000000000, -0.000000000000000000 ) ) ;
#214 = EDGE_CURVE ( 'NONE', #199, #307, #129, .T. ) ;
#215 = DIRECTION ( 'NONE',  ( 0.000000000000000000, 0.000000000000000000, -1.000000000000000000 ) ) ;
#216 = PERSON_AND_ORGANIZATION ( #171, #164 ) ;
#217 = ORIENTED_EDGE ( 'NONE', *, *, #344, .F. ) ;
#218 = CC_DESIGN_APPROVAL ( #275, ( #97 ) ) ;
#219 = DIRECTION ( 'NONE',  ( 0.000000000000000000, 0.000000000000000000, -1.000000000000000000 ) ) ;
#220 = CARTESIAN_POINT ( 'NONE',  ( 0.000000000000000000, -3.800627997353790580E-17, -7.650000000000007461 ) ) ;
#221 = DIRECTION ( 'NONE',  ( -0.000000000000000000, -1.000000000000000000, -0.000000000000000000 ) ) ;
#222 = EDGE_CURVE ( 'NONE', #199, #374, #245, .T. ) ;
#223 = CARTESIAN_POINT ( 'NONE',  ( -3.494454053826938072E-15, 14.29615342604705930, 0.000000000000000000 ) ) ;
#224 = AXIS2_PLACEMENT_3D ( 'NONE', #158, #96, #11 ) ;
#225 = CARTESIAN_POINT ( 'NONE',  ( 0.000000000000000000, 0.000000000000000000, -8.000000000000000000 ) ) ;
#226 = CARTESIAN_POINT ( 'NONE',  ( 0.000000000000000000, -7.601255994707581159E-17, -8.000000000000001776 ) ) ;
#227 = EDGE_LOOP ( 'NONE', ( #232, #20, #121 ) ) ;
#228 = EDGE_CURVE ( 'NONE', #233, #307, #352, .T. ) ;
#229 = LINE ( 'NONE', #116, #95 ) ;
#230 = VERTEX_POINT ( 'NONE', #39 ) ;
#231 = APPROVAL_ROLE ( '' ) ;
#232 = ORIENTED_EDGE ( 'NONE', *, *, #106, .F. ) ;
#233 = VERTEX_POINT ( 'NONE', #330 ) ;
#234 = EDGE_LOOP ( 'NONE', ( #178, #117, #255, #369 ) ) ;
#235 = DIRECTION ( 'NONE',  ( 0.000000000000000000, 0.000000000000000000, -1.000000000000000000 ) ) ;
#236 = COORDINATED_UNIVERSAL_TIME_OFFSET ( 1, 0, .AHEAD. ) ;
#237 = CARTESIAN_POINT ( 'NONE',  ( 0.000000000000000000, 0.000000000000000000, -7.149999999999999467 ) ) ;
#238 = ADVANCED_FACE ( 'NONE', ( #9 ), #246, .T. ) ;
#239 = CARTESIAN_POINT ( 'NONE',  ( 8.756224613903573545E-16, 10.00000000000000000, 7.149999999999998579 ) ) ;
#240 = AXIS2_PLACEMENT_3D ( 'NONE', #354, #136, #326 ) ;
#241 = CLOSED_SHELL ( 'NONE', ( #90, #174, #101, #238, #302, #128, #298, #75, #187, #135, #7, #269 ) ) ;
#242 = FACE_OUTER_BOUND ( 'NONE', #312, .T. ) ;
#243 = CONICAL_SURFACE ( 'NONE', #57, 7.149999999999999467, 0.7853981633974517207 ) ;
#244 = DIRECTION ( 'NONE',  ( 0.000000000000000000, -0.5150380749100547106, -0.8571673007021120005 ) ) ;
#245 = LINE ( 'NONE', #225, #107 ) ;
#246 = CYLINDRICAL_SURFACE ( 'NONE', #260, 8.000000000000000000 ) ;
#247 = DIRECTION ( 'NONE',  ( -0.000000000000000000, -1.000000000000000000, -0.000000000000000000 ) ) ;
#248 = CARTESIAN_POINT ( 'NONE',  ( 0.000000000000000000, 13.99999999999999822, 0.000000000000000000 ) ) ;
#249 = CC_DESIGN_DATE_AND_TIME_ASSIGNMENT ( #376, #185, ( #77 ) ) ;
#250 = CARTESIAN_POINT ( 'NONE',  ( 0.000000000000000000, 0.5000000000000047740, 0.000000000000000000 ) ) ;
#251 = AXIS2_PLACEMENT_3D ( 'NONE', #89, #91, #157 ) ;
#252 = AXIS2_PLACEMENT_3D ( 'NONE', #318, #292, #94 ) ;
#253 = PERSON_AND_ORGANIZATION ( #171, #164 ) ;
#254 = EDGE_CURVE ( 'NONE', #23, #230, #68, .T. ) ;
#255 = ORIENTED_EDGE ( 'NONE', *, *, #214, .F. ) ;
#256 = PERSON_AND_ORGANIZATION_ROLE ( 'design_owner' ) ;
#257 = ORIENTED_EDGE ( 'NONE', *, *, #214, .T. ) ;
#258 = EDGE_CURVE ( 'NONE', #110, #199, #347, .T. ) ;
#259 = VERTEX_POINT ( 'NONE', #196 ) ;
#260 = AXIS2_PLACEMENT_3D ( 'NONE', #98, #221, #10 ) ;
#261 = ORIENTED_EDGE ( 'NONE', *, *, #200, .F. ) ;
#262 = ORIENTED_EDGE ( 'NONE', *, *, #146, .T. ) ;
#263 = DIRECTION ( 'NONE',  ( -0.000000000000000000, -1.000000000000000000, -0.000000000000000000 ) ) ;
#264 = FACE_OUTER_BOUND ( 'NONE', #338, .T. ) ;
#265 = CALENDAR_DATE ( 2023, 29, 5 ) ;
#266 = FACE_OUTER_BOUND ( 'NONE', #170, .T. ) ;
#267 = AXIS2_PLACEMENT_3D ( 'NONE', #62, #4, #156 ) ;
#268 = DIRECTION ( 'NONE',  ( -0.000000000000000000, -1.000000000000000000, -0.000000000000000000 ) ) ;
#269 = ADVANCED_FACE ( 'NONE', ( #191 ), #243, .F. ) ;
#270 = AXIS2_PLACEMENT_3D ( 'NONE', #38, #163, #167 ) ;
#271 = DIRECTION ( 'NONE',  ( 0.000000000000000000, 1.000000000000000000, 0.000000000000000000 ) ) ;
#272 = FACE_OUTER_BOUND ( 'NONE', #234, .T. ) ;
#273 = LOCAL_TIME ( 14, 17, 30.00000000000000000, #203 ) ;
#274 = CARTESIAN_POINT ( 'NONE',  ( 9.797174393178825657E-16, 13.99999999999999822, 8.000000000000000000 ) ) ;
#275 = APPROVAL ( #83, 'NEURÈENÝ' ) ;
#276 = DIRECTION ( 'NONE',  ( 0.000000000000000000, 0.000000000000000000, -1.000000000000000000 ) ) ;
#277 = CARTESIAN_POINT ( 'NONE',  ( 0.000000000000000000, 13.99999999999999822, -8.000000000000000000 ) ) ;
#278 = APPROVAL ( #1, 'NEURÈENÝ' ) ;
#279 = PERSON_AND_ORGANIZATION_ROLE ( 'design_supplier' ) ;
#280 = ORIENTED_EDGE ( 'NONE', *, *, #254, .T. ) ;
#281 = EDGE_LOOP ( 'NONE', ( #365, #202, #372, #173 ) ) ;
#282 = EDGE_LOOP ( 'NONE', ( #288, #142, #315, #217 ) ) ;
#283 = CIRCLE ( 'NONE', #177, 7.149999999999999467 ) ;
#284 = DIRECTION ( 'NONE',  ( -0.000000000000000000, -1.000000000000000000, -0.000000000000000000 ) ) ;
#285 = ORIENTED_EDGE ( 'NONE', *, *, #61, .F. ) ;
#286 = ORIENTED_EDGE ( 'NONE', *, *, #47, .T. ) ;
#287 = LOCAL_TIME ( 14, 17, 30.00000000000000000, #236 ) ;
#288 = ORIENTED_EDGE ( 'NONE', *, *, #228, .F. ) ;
#289 = PRODUCT_DEFINITION ( 'NEZNÁMÝ', '', #97, #108 ) ;
#290 = FACE_OUTER_BOUND ( 'NONE', #281, .T. ) ;
#291 = CARTESIAN_POINT ( 'NONE',  ( 0.000000000000000000, 10.00000000000000000, 0.000000000000000000 ) ) ;
#292 = DIRECTION ( 'NONE',  ( -0.000000000000000000, -1.000000000000000000, -0.000000000000000000 ) ) ;
#293 = CONICAL_SURFACE ( 'NONE', #70, 7.149999999999999467, 0.7853981633974517207 ) ;
#294 = VECTOR ( 'NONE', #244, 1000.000000000000000 ) ;
#295 = DIRECTION ( 'NONE',  ( 0.000000000000000000, 0.000000000000000000, -1.000000000000000000 ) ) ;
#296 = PLANE ( 'NONE',  #270 ) ;
#297 = DIRECTION ( 'NONE',  ( -0.000000000000000000, -1.000000000000000000, -0.000000000000000000 ) ) ;
#298 = ADVANCED_FACE ( 'NONE', ( #327 ), #296, .T. ) ;
#299 = CARTESIAN_POINT ( 'NONE',  ( 0.000000000000000000, 0.5000000000000047740, 0.000000000000000000 ) ) ;
#300 = CYLINDRICAL_SURFACE ( 'NONE', #19, 8.000000000000000000 ) ;
#301 = CIRCLE ( 'NONE', #363, 8.000000000000000000 ) ;
#302 = ADVANCED_FACE ( 'NONE', ( #272 ), #37, .T. ) ;
#303 = DIRECTION ( 'NONE',  ( 0.000000000000000000, 0.000000000000000000, -1.000000000000000000 ) ) ;
#304 = CARTESIAN_POINT ( 'NONE',  ( 0.000000000000000000, 10.00000000000000000, -7.149999999999998579 ) ) ;
#305 = ORIENTED_EDGE ( 'NONE', *, *, #69, .F. ) ;
#306 = CARTESIAN_POINT ( 'NONE',  ( 0.000000000000000000, -7.601255994707581159E-17, 0.000000000000000000 ) ) ;
#307 = VERTEX_POINT ( 'NONE', #134 ) ;
#308 = PERSON_AND_ORGANIZATION ( #171, #164 ) ;
#309 = ORIENTED_EDGE ( 'NONE', *, *, #122, .F. ) ;
#310 = CC_DESIGN_DATE_AND_TIME_ASSIGNMENT ( #175, #18, ( #289 ) ) ;
#311 = CALENDAR_DATE ( 2023, 29, 5 ) ;
#312 = EDGE_LOOP ( 'NONE', ( #286, #209 ) ) ;
#313 = AXIS2_PLACEMENT_3D ( 'NONE', #102, #138, #8 ) ;
#314 = CIRCLE ( 'NONE', #93, 6.999999999999999112 ) ;
#315 = ORIENTED_EDGE ( 'NONE', *, *, #258, .T. ) ;
#316 = CIRCLE ( 'NONE', #331, 7.650000000000007461 ) ;
#317 = CC_DESIGN_PERSON_AND_ORGANIZATION_ASSIGNMENT ( #308, #371, ( #289 ) ) ;
#318 = CARTESIAN_POINT ( 'NONE',  ( 0.000000000000000000, 0.000000000000000000, 0.000000000000000000 ) ) ;
#319 = CC_DESIGN_APPROVAL ( #22, ( #289 ) ) ;
#320 = CARTESIAN_POINT ( 'NONE',  ( 8.756224613903573545E-16, 0.5000000000000047740, 7.149999999999999467 ) ) ;
#321 = CARTESIAN_POINT ( 'NONE',  ( 0.000000000000000000, 0.5000000000000047740, 0.000000000000000000 ) ) ;
#322 = DIRECTION ( 'NONE',  ( 0.000000000000000000, -1.000000000000000000, -0.000000000000000000 ) ) ;
#323 = CYLINDRICAL_SURFACE ( 'NONE', #252, 7.149999999999999467 ) ;
#324 = DIRECTION ( 'NONE',  ( 8.659560562354932858E-17, -0.7071067811865474617, 0.7071067811865474617 ) ) ;
#325 = DIRECTION ( 'NONE',  ( 0.000000000000000000, 1.000000000000000000, 0.000000000000000000 ) ) ;
#326 = DIRECTION ( 'NONE',  ( 0.000000000000000000, 0.000000000000000000, -1.000000000000000000 ) ) ;
#327 = FACE_OUTER_BOUND ( 'NONE', #148, .T. ) ;
#328 = VECTOR ( 'NONE', #212, 1000.000000000000000 ) ;
#329 = EDGE_CURVE ( 'NONE', #113, #161, #316, .T. ) ;
#330 = CARTESIAN_POINT ( 'NONE',  ( 9.184850993605147944E-16, 15.00000000000000000, 6.999999999999999112 ) ) ;
#331 = AXIS2_PLACEMENT_3D ( 'NONE', #99, #325, #172 ) ;
#332 = CARTESIAN_POINT ( 'NONE',  ( 0.000000000000000000, 13.99999999999999822, 0.000000000000000000 ) ) ;
#333 = ORIENTED_EDGE ( 'NONE', *, *, #222, .T. ) ;
#334 = AXIS2_PLACEMENT_3D ( 'NONE', #147, #335, #16 ) ;
#335 = DIRECTION ( 'NONE',  ( 0.000000000000000000, 0.000000000000000000, 1.000000000000000000 ) ) ;
#336 = EDGE_LOOP ( 'NONE', ( #285, #153, #333, #341 ) ) ;
#337 = COORDINATED_UNIVERSAL_TIME_OFFSET ( 1, 0, .AHEAD. ) ;
#338 = EDGE_LOOP ( 'NONE', ( #84, #87, #17, #82 ) ) ;
#339 = EDGE_CURVE ( 'NONE', #120, #161, #229, .T. ) ;
#340 = PERSON_AND_ORGANIZATION ( #171, #164 ) ;
#341 = ORIENTED_EDGE ( 'NONE', *, *, #367, .F. ) ;
#342 =( LENGTH_UNIT ( ) NAMED_UNIT ( * ) SI_UNIT ( .MILLI., .METRE. ) );
#343 = VERTEX_POINT ( 'NONE', #304 ) ;
#344 = EDGE_CURVE ( 'NONE', #307, #199, #301, .T. ) ;
#345 = DIRECTION ( 'NONE',  ( 0.000000000000000000, 0.000000000000000000, -1.000000000000000000 ) ) ;
#346 = CARTESIAN_POINT ( 'NONE',  ( 9.797174393178825657E-16, 0.000000000000000000, 8.000000000000000000 ) ) ;
#347 = LINE ( 'NONE', #277, #42 ) ;
#348 = AXIS2_PLACEMENT_3D ( 'NONE', #6, #105, #357 ) ;
#349 = PERSON_AND_ORGANIZATION ( #171, #164 ) ;
#350 = PLANE ( 'NONE',  #86 ) ;
#351 = CARTESIAN_POINT ( 'NONE',  ( 9.368548013477260133E-16, -3.800627997353790580E-17, 7.650000000000007461 ) ) ;
#352 = LINE ( 'NONE', #274, #5 ) ;
#353 = CC_DESIGN_PERSON_AND_ORGANIZATION_ASSIGNMENT ( #143, #256, ( #166 ) ) ;
#354 = CARTESIAN_POINT ( 'NONE',  ( 0.000000000000000000, 0.5000000000000047740, 0.000000000000000000 ) ) ;
#355 = APPLICATION_CONTEXT ( 'configuration controlled 3d designs of mechanical parts and assemblies' ) ;
#356 = DIRECTION ( 'NONE',  ( -0.000000000000000000, -1.000000000000000000, -0.000000000000000000 ) ) ;
#357 = DIRECTION ( 'NONE',  ( 0.000000000000000000, 0.000000000000000000, -1.000000000000000000 ) ) ;
#358 = CC_DESIGN_PERSON_AND_ORGANIZATION_ASSIGNMENT ( #253, #362, ( #97 ) ) ;
#359 = DIRECTION ( 'NONE',  ( 0.000000000000000000, -1.000000000000000000, 0.000000000000000000 ) ) ;
#360 = VECTOR ( 'NONE', #181, 1000.000000000000000 ) ;
#361 = CONICAL_SURFACE ( 'NONE', #130, 8.000000000000000000, 0.7853981633974482790 ) ;
#362 = PERSON_AND_ORGANIZATION_ROLE ( 'creator' ) ;
#363 = AXIS2_PLACEMENT_3D ( 'NONE', #332, #79, #150 ) ;
#364 = MECHANICAL_CONTEXT ( 'NONE', #355, 'mechanical' ) ;
#365 = ORIENTED_EDGE ( 'NONE', *, *, #205, .F. ) ;
#366 = LOCAL_TIME ( 14, 17, 30.00000000000000000, #337 ) ;
#367 = EDGE_CURVE ( 'NONE', #259, #374, #162, .T. ) ;
#368 = DIRECTION ( 'NONE',  ( 0.000000000000000000, -0.7071067811865451302, -0.7071067811865500152 ) ) ;
#369 = ORIENTED_EDGE ( 'NONE', *, *, #258, .F. ) ;
#370 = UNCERTAINTY_MEASURE_WITH_UNIT (LENGTH_MEASURE( 1.000000000000000082E-05 ), #342, 'distance_accuracy_value', 'NONE');
#371 = PERSON_AND_ORGANIZATION_ROLE ( 'creator' ) ;
#372 = ORIENTED_EDGE ( 'NONE', *, *, #146, .F. ) ;
#373 = MANIFOLD_SOLID_BREP ( 'Zkosení1', #241 ) ;
#374 = VERTEX_POINT ( 'NONE', #226 ) ;
#375 = LOCAL_TIME ( 14, 17, 30.00000000000000000, #208 ) ;
#376 = DATE_AND_TIME ( #265, #287 ) ;
#377 = LINE ( 'NONE', #320, #55 ) ;
#378 = CARTESIAN_POINT ( 'NONE',  ( 0.000000000000000000, 0.5000000000000047740, -7.149999999999999467 ) ) ;
#379 = CARTESIAN_POINT ( 'NONE',  ( 0.000000000000000000, 15.00000000000000000, 0.000000000000000000 ) ) ;
ENDSEC;
END-ISO-10303-21;
