ISO-10303-21;
HEADER;
FILE_DESCRIPTION (( 'STEP AP203' ),
    '1' );
FILE_NAME ('A10_0015-016.STEP',
    '2018-12-17T14:12:42',
    ( '' ),
    ( '' ),
    'SwSTEP 2.0',
    'SolidWorks 2013',
    '' );
FILE_SCHEMA (( 'CONFIG_CONTROL_DESIGN' ));
ENDSEC;

DATA;
#1 = AXIS2_PLACEMENT_3D ( 'NONE', #186, #323, #120 ) ;
#2 = CARTESIAN_POINT ( 'NONE',  ( 8.149999999999996800, 9.980871413050926000E-016, 0.2999999999999981600 ) ) ;
#3 = CARTESIAN_POINT ( 'NONE',  ( -8.149999999999996800, 0.0000000000000000000, 0.0000000000000000000 ) ) ;
#4 = VERTEX_POINT ( 'NONE', #320 ) ;
#5 = ORIENTED_EDGE ( 'NONE', *, *, #317, .F. ) ;
#6 = DIRECTION ( 'NONE',  ( 0.0000000000000000000, 0.0000000000000000000, 1.000000000000000000 ) ) ;
#7 = EDGE_CURVE ( 'NONE', #162, #51, #175, .T. ) ;
#8 = DIRECTION ( 'NONE',  ( 1.000000000000000000, 0.0000000000000000000, 0.0000000000000000000 ) ) ;
#9 = APPROVAL_PERSON_ORGANIZATION ( #371, #36, #55 ) ;
#10 = LINE ( 'NONE', #182, #352 ) ;
#11 = EDGE_LOOP ( 'NONE', ( #306, #217, #118, #205 ) ) ;
#12 = DIRECTION ( 'NONE',  ( -0.0000000000000000000, -0.0000000000000000000, -1.000000000000000000 ) ) ;
#13 = DIRECTION ( 'NONE',  ( 0.0000000000000000000, 0.0000000000000000000, 1.000000000000000000 ) ) ;
#14 = DIRECTION ( 'NONE',  ( -1.000000000000000000, 0.0000000000000000000, 0.0000000000000000000 ) ) ;
#15 = LINE ( 'NONE', #278, #82 ) ;
#16 = DIRECTION ( 'NONE',  ( 1.000000000000000000, 0.0000000000000000000, 0.0000000000000000000 ) ) ;
#17 = VERTEX_POINT ( 'NONE', #2 ) ;
#18 = DIRECTION ( 'NONE',  ( 0.0000000000000000000, 0.0000000000000000000, 1.000000000000000000 ) ) ;
#19 = AXIS2_PLACEMENT_3D ( 'NONE', #367, #104, #16 ) ;
#20 = CARTESIAN_POINT ( 'NONE',  ( 0.0000000000000000000, 0.0000000000000000000, 15.00000000000000000 ) ) ;
#21 = AXIS2_PLACEMENT_3D ( 'NONE', #199, #141, #176 ) ;
#22 = VERTEX_POINT ( 'NONE', #61 ) ;
#23 = DATE_AND_TIME ( #116, #251 ) ;
#24 = DIRECTION ( 'NONE',  ( -1.000000000000000000, 0.0000000000000000000, 0.0000000000000000000 ) ) ;
#25 = DIRECTION ( 'NONE',  ( 1.000000000000000000, 0.0000000000000000000, 0.0000000000000000000 ) ) ;
#26 = VECTOR ( 'NONE', #207, 1000.000000000000000 ) ;
#27 = ORIENTED_EDGE ( 'NONE', *, *, #312, .T. ) ;
#28 = VERTEX_POINT ( 'NONE', #144 ) ;
#29 = PERSON_AND_ORGANIZATION_ROLE ( 'design_owner' ) ;
#30 = DATE_AND_TIME ( #264, #282 ) ;
#31 = CIRCLE ( 'NONE', #88, 7.500000000000018700 ) ;
#32 = MANIFOLD_SOLID_BREP ( 'Zkosení2', #329 ) ;
#33 = CARTESIAN_POINT ( 'NONE',  ( 0.0000000000000000000, 0.0000000000000000000, 0.0000000000000000000 ) ) ;
#34 = DIRECTION ( 'NONE',  ( -0.7071067811865516800, 0.0000000000000000000, -0.7071067811865434600 ) ) ;
#35 = LOCAL_TIME ( 15, 12, 42.00000000000000000, #74 ) ;
#36 = APPROVAL ( #198, 'NEURÈENÝ' ) ;
#37 = DIRECTION ( 'NONE',  ( 0.0000000000000000000, 0.0000000000000000000, -1.000000000000000000 ) ) ;
#38 = ORIENTED_EDGE ( 'NONE', *, *, #276, .T. ) ;
#39 = AXIS2_PLACEMENT_3D ( 'NONE', #235, #360, #40 ) ;
#40 = DIRECTION ( 'NONE',  ( 1.000000000000000000, 0.0000000000000000000, 0.0000000000000000000 ) ) ;
#41 = DIRECTION ( 'NONE',  ( -0.0000000000000000000, -0.0000000000000000000, -1.000000000000000000 ) ) ;
#42 = PERSON_AND_ORGANIZATION ( #245, #220 ) ;
#43 = VECTOR ( 'NONE', #212, 1000.000000000000000 ) ;
#44 = FACE_OUTER_BOUND ( 'NONE', #101, .T. ) ;
#45 = DIRECTION ( 'NONE',  ( 1.000000000000000000, 0.0000000000000000000, -0.0000000000000000000 ) ) ;
#46 = ORIENTED_EDGE ( 'NONE', *, *, #377, .F. ) ;
#47 = CARTESIAN_POINT ( 'NONE',  ( -7.500000000000018700, 0.0000000000000000000, 21.00000000000000000 ) ) ;
#48 = AXIS2_PLACEMENT_3D ( 'NONE', #305, #153, #249 ) ;
#49 = DIRECTION ( 'NONE',  ( 0.0000000000000000000, 0.0000000000000000000, -1.000000000000000000 ) ) ;
#50 = CIRCLE ( 'NONE', #250, 9.000000000000001800 ) ;
#51 = VERTEX_POINT ( 'NONE', #202 ) ;
#52 = EDGE_LOOP ( 'NONE', ( #114, #303, #38, #222 ) ) ;
#53 = ADVANCED_FACE ( 'NONE', ( #70 ), #353, .F. ) ;
#54 = VECTOR ( 'NONE', #291, 1000.000000000000000 ) ;
#55 = APPROVAL_ROLE ( '' ) ;
#56 = EDGE_LOOP ( 'NONE', ( #181, #113, #119, #357 ) ) ;
#57 =( NAMED_UNIT ( * ) SI_UNIT ( $, .STERADIAN. ) SOLID_ANGLE_UNIT ( ) );
#58 = AXIS2_PLACEMENT_3D ( 'NONE', #98, #145, #350 ) ;
#59 = CONICAL_SURFACE ( 'NONE', #293, 7.500000000000018700, 0.7853981633974477200 ) ;
#60 = CONICAL_SURFACE ( 'NONE', #106, 8.149999999999996800, 1.029744258676653900 ) ;
#61 = CARTESIAN_POINT ( 'NONE',  ( -9.000000000000001800, 0.0000000000000000000, 0.0000000000000000000 ) ) ;
#62 = CARTESIAN_POINT ( 'NONE',  ( 0.0000000000000000000, 0.0000000000000000000, 15.00000000000000000 ) ) ;
#63 = CC_DESIGN_APPROVAL ( #372, ( #196 ) ) ;
#64 = DIRECTION ( 'NONE',  ( 1.000000000000000000, 0.0000000000000000000, 0.0000000000000000000 ) ) ;
#65 = VERTEX_POINT ( 'NONE', #318 ) ;
#66 = ORIENTED_EDGE ( 'NONE', *, *, #102, .F. ) ;
#67 = EDGE_CURVE ( 'NONE', #22, #328, #50, .T. ) ;
#68 = DIRECTION ( 'NONE',  ( -1.000000000000000000, 0.0000000000000000000, 0.0000000000000000000 ) ) ;
#69 = CARTESIAN_POINT ( 'NONE',  ( 0.0000000000000000000, 0.0000000000000000000, 19.50000000000001800 ) ) ;
#70 = FACE_OUTER_BOUND ( 'NONE', #283, .T. ) ;
#71 = CARTESIAN_POINT ( 'NONE',  ( 8.149999999999996800, 9.980871413050926000E-016, 15.00000000000000000 ) ) ;
#72 = DIRECTION ( 'NONE',  ( 1.000000000000000000, 0.0000000000000000000, 0.0000000000000000000 ) ) ;
#73 = CARTESIAN_POINT ( 'NONE',  ( 9.000000000000001800, 1.102182119232617700E-015, 21.00000000000000000 ) ) ;
#74 = COORDINATED_UNIVERSAL_TIME_OFFSET ( 1, 0, .AHEAD. ) ;
#75 = CIRCLE ( 'NONE', #338, 7.500000000000018700 ) ;
#76 = CARTESIAN_POINT ( 'NONE',  ( 0.0000000000000000000, 0.0000000000000000000, 0.0000000000000000000 ) ) ;
#77 = ORIENTED_EDGE ( 'NONE', *, *, #7, .T. ) ;
#78 = CIRCLE ( 'NONE', #151, 8.149999999999996800 ) ;
#79 = CIRCLE ( 'NONE', #179, 9.000000000000001800 ) ;
#80 = ORIENTED_EDGE ( 'NONE', *, *, #102, .T. ) ;
#81 = DATE_TIME_ROLE ( 'classification_date' ) ;
#82 = VECTOR ( 'NONE', #218, 1000.000000000000000 ) ;
#83 = FACE_BOUND ( 'NONE', #211, .T. ) ;
#84 = APPROVAL_ROLE ( '' ) ;
#85 = AXIS2_PLACEMENT_3D ( 'NONE', #122, #41, #14 ) ;
#86 = ORIENTED_EDGE ( 'NONE', *, *, #67, .T. ) ;
#87 = ORIENTED_EDGE ( 'NONE', *, *, #324, .T. ) ;
#88 = AXIS2_PLACEMENT_3D ( 'NONE', #351, #150, #8 ) ;
#89 = LINE ( 'NONE', #73, #378 ) ;
#90 = SECURITY_CLASSIFICATION ( '', '', #258 ) ;
#91 = DIRECTION ( 'NONE',  ( -1.000000000000000000, 0.0000000000000000000, 0.0000000000000000000 ) ) ;
#92 = CONICAL_SURFACE ( 'NONE', #237, 7.500000000000018700, 0.7853981633974477200 ) ;
#93 = FACE_OUTER_BOUND ( 'NONE', #56, .T. ) ;
#94 = EDGE_CURVE ( 'NONE', #65, #17, #234, .T. ) ;
#95 = DIRECTION ( 'NONE',  ( 1.000000000000000000, 0.0000000000000000000, 0.0000000000000000000 ) ) ;
#96 = CARTESIAN_POINT ( 'NONE',  ( -8.149999999999996800, 0.0000000000000000000, 15.00000000000000000 ) ) ;
#97 = CC_DESIGN_PERSON_AND_ORGANIZATION_ASSIGNMENT ( #326, #286, ( #90 ) ) ;
#98 = CARTESIAN_POINT ( 'NONE',  ( 0.0000000000000000000, 0.0000000000000000000, 0.0000000000000000000 ) ) ;
#99 = DIRECTION ( 'NONE',  ( -0.0000000000000000000, -0.0000000000000000000, -1.000000000000000000 ) ) ;
#100 = ORIENTED_EDGE ( 'NONE', *, *, #312, .F. ) ;
#101 = EDGE_LOOP ( 'NONE', ( #100, #80, #77 ) ) ;
#102 = EDGE_CURVE ( 'NONE', #109, #162, #343, .T. ) ;
#103 = PERSON_AND_ORGANIZATION ( #245, #220 ) ;
#104 = DIRECTION ( 'NONE',  ( 0.0000000000000000000, 0.0000000000000000000, -1.000000000000000000 ) ) ;
#105 = DIRECTION ( 'NONE',  ( 0.8571673007021120000, 1.049727191138618300E-016, -0.5150380749100547100 ) ) ;
#106 = AXIS2_PLACEMENT_3D ( 'NONE', #62, #12, #68 ) ;
#107 = CALENDAR_DATE ( 2018, 17, 12 ) ;
#108 = APPLICATION_CONTEXT ( 'configuration controlled 3d designs of mechanical parts and assemblies' ) ;
#109 = VERTEX_POINT ( 'NONE', #180 ) ;
#110 = DATE_TIME_ROLE ( 'creation_date' ) ;
#111 = APPLICATION_PROTOCOL_DEFINITION ( 'international standard', 'config_control_design', 1994, #108 ) ;
#112 = CIRCLE ( 'NONE', #39, 9.000000000000001800 ) ;
#113 = ORIENTED_EDGE ( 'NONE', *, *, #333, .T. ) ;
#114 = ORIENTED_EDGE ( 'NONE', *, *, #227, .F. ) ;
#115 = DIRECTION ( 'NONE',  ( 0.0000000000000000000, 0.0000000000000000000, -1.000000000000000000 ) ) ;
#116 = CALENDAR_DATE ( 2018, 17, 12 ) ;
#117 = EDGE_LOOP ( 'NONE', ( #280, #152, #344, #86 ) ) ;
#118 = ORIENTED_EDGE ( 'NONE', *, *, #172, .T. ) ;
#119 = ORIENTED_EDGE ( 'NONE', *, *, #164, .T. ) ;
#120 = DIRECTION ( 'NONE',  ( -1.000000000000000000, 0.0000000000000000000, 0.0000000000000000000 ) ) ;
#121 = DIRECTION ( 'NONE',  ( 1.000000000000000000, 0.0000000000000000000, 0.0000000000000000000 ) ) ;
#122 = CARTESIAN_POINT ( 'NONE',  ( 0.0000000000000000000, 0.0000000000000000000, 21.00000000000000000 ) ) ;
#123 = CONICAL_SURFACE ( 'NONE', #284, 8.149999999999996800, 1.029744258676653900 ) ;
#124 = CARTESIAN_POINT ( 'NONE',  ( 9.000000000000001800, 1.102182119232617700E-015, 0.0000000000000000000 ) ) ;
#125 = CC_DESIGN_PERSON_AND_ORGANIZATION_ASSIGNMENT ( #42, #224, ( #259 ) ) ;
#126 = DIRECTION ( 'NONE',  ( 0.7071067811865470200, 8.659560562354926700E-017, -0.7071067811865479100 ) ) ;
#127 = EDGE_CURVE ( 'NONE', #335, #369, #31, .T. ) ;
#128 = DIRECTION ( 'NONE',  ( 0.0000000000000000000, 0.0000000000000000000, -1.000000000000000000 ) ) ;
#129 = ORIENTED_EDGE ( 'NONE', *, *, #359, .F. ) ;
#130 = PRODUCT ( 'A10_0015-016', 'A10_0015-016', '', ( #310 ) ) ;
#131 = AXIS2_PLACEMENT_3D ( 'NONE', #76, #13, #189 ) ;
#132 = DIRECTION ( 'NONE',  ( -1.000000000000000000, 0.0000000000000000000, 0.0000000000000000000 ) ) ;
#133 = ADVANCED_FACE ( 'NONE', ( #159 ), #322, .F. ) ;
#134 = CARTESIAN_POINT ( 'NONE',  ( 0.0000000000000000000, 0.0000000000000000000, 15.00000000000000000 ) ) ;
#135 = CIRCLE ( 'NONE', #19, 9.000000000000001800 ) ;
#136 = EDGE_CURVE ( 'NONE', #292, #22, #316, .T. ) ;
#137 = PERSON_AND_ORGANIZATION_ROLE ( 'design_supplier' ) ;
#138 = APPLICATION_CONTEXT ( 'configuration controlled 3d designs of mechanical parts and assemblies' ) ;
#139 = FACE_OUTER_BOUND ( 'NONE', #263, .T. ) ;
#140 = ADVANCED_FACE ( 'NONE', ( #44 ), #60, .F. ) ;
#141 = DIRECTION ( 'NONE',  ( -0.0000000000000000000, -0.0000000000000000000, -1.000000000000000000 ) ) ;
#142 = PERSON_AND_ORGANIZATION ( #245, #220 ) ;
#143 = VERTEX_POINT ( 'NONE', #206 ) ;
#144 = CARTESIAN_POINT ( 'NONE',  ( 9.000000000000001800, 1.102182119232617700E-015, 19.50000000000001800 ) ) ;
#145 = DIRECTION ( 'NONE',  ( -0.0000000000000000000, -0.0000000000000000000, -1.000000000000000000 ) ) ;
#146 = APPROVAL_PERSON_ORGANIZATION ( #103, #272, #285 ) ;
#147 = FACE_OUTER_BOUND ( 'NONE', #11, .T. ) ;
#148 = PLANE ( 'NONE',  #213 ) ;
#149 = ORIENTED_EDGE ( 'NONE', *, *, #193, .T. ) ;
#150 = DIRECTION ( 'NONE',  ( 0.0000000000000000000, 0.0000000000000000000, 1.000000000000000000 ) ) ;
#151 = AXIS2_PLACEMENT_3D ( 'NONE', #134, #254, #24 ) ;
#152 = ORIENTED_EDGE ( 'NONE', *, *, #336, .T. ) ;
#153 = DIRECTION ( 'NONE',  ( 0.0000000000000000000, 0.0000000000000000000, -1.000000000000000000 ) ) ;
#154 = DIRECTION ( 'NONE',  ( -1.000000000000000000, 0.0000000000000000000, 0.0000000000000000000 ) ) ;
#155 = EDGE_CURVE ( 'NONE', #65, #4, #10, .T. ) ;
#156 = DIRECTION ( 'NONE',  ( -0.7071067811865470200, 0.0000000000000000000, -0.7071067811865479100 ) ) ;
#157 = COORDINATED_UNIVERSAL_TIME_OFFSET ( 1, 0, .AHEAD. ) ;
#158 = CYLINDRICAL_SURFACE ( 'NONE', #257, 9.000000000000001800 ) ;
#159 = FACE_OUTER_BOUND ( 'NONE', #170, .T. ) ;
#160 = CARTESIAN_POINT ( 'NONE',  ( -9.000000000000001800, 0.0000000000000000000, 19.50000000000001800 ) ) ;
#161 = CC_DESIGN_APPROVAL ( #272, ( #90 ) ) ;
#162 = VERTEX_POINT ( 'NONE', #239 ) ;
#163 = CARTESIAN_POINT ( 'NONE',  ( 0.0000000000000000000, 0.0000000000000000000, 21.00000000000000000 ) ) ;
#164 = EDGE_CURVE ( 'NONE', #328, #22, #112, .T. ) ;
#165 = PERSON_AND_ORGANIZATION ( #245, #220 ) ;
#166 = DIRECTION ( 'NONE',  ( 0.0000000000000000000, 0.0000000000000000000, 1.000000000000000000 ) ) ;
#167 = ORIENTED_EDGE ( 'NONE', *, *, #127, .T. ) ;
#168 = LOCAL_TIME ( 15, 12, 42.00000000000000000, #157 ) ;
#169 = ADVANCED_FACE ( 'NONE', ( #93 ), #158, .T. ) ;
#170 = EDGE_LOOP ( 'NONE', ( #46, #348, #87, #268 ) ) ;
#171 =( LENGTH_UNIT ( ) NAMED_UNIT ( * ) SI_UNIT ( .MILLI., .METRE. ) );
#172 = EDGE_CURVE ( 'NONE', #162, #65, #185, .T. ) ;
#173 = COORDINATED_UNIVERSAL_TIME_OFFSET ( 1, 0, .AHEAD. ) ;
#174 = CC_DESIGN_APPROVAL ( #36, ( #259 ) ) ;
#175 = CIRCLE ( 'NONE', #21, 8.149999999999996800 ) ;
#176 = DIRECTION ( 'NONE',  ( -1.000000000000000000, 0.0000000000000000000, 0.0000000000000000000 ) ) ;
#177 = PRODUCT_DEFINITION_SHAPE ( 'NONE', 'NONE',  #259 ) ;
#178 = LOCAL_TIME ( 15, 12, 42.00000000000000000, #255 ) ;
#179 = AXIS2_PLACEMENT_3D ( 'NONE', #69, #37, #301 ) ;
#180 = CARTESIAN_POINT ( 'NONE',  ( -4.873362912578112800E-015, 0.0000000000000000000, 19.89701404507462000 ) ) ;
#181 = ORIENTED_EDGE ( 'NONE', *, *, #204, .T. ) ;
#182 = CARTESIAN_POINT ( 'NONE',  ( -8.149999999999996800, 0.0000000000000000000, 0.2999999999999981600 ) ) ;
#183 = DIRECTION ( 'NONE',  ( -1.000000000000000000, 0.0000000000000000000, 0.0000000000000000000 ) ) ;
#184 = APPROVAL_DATE_TIME ( #30, #372 ) ;
#185 = LINE ( 'NONE', #3, #54 ) ;
#186 = CARTESIAN_POINT ( 'NONE',  ( 0.0000000000000000000, 0.0000000000000000000, 0.0000000000000000000 ) ) ;
#187 = FACE_OUTER_BOUND ( 'NONE', #362, .T. ) ;
#188 = DIRECTION ( 'NONE',  ( 0.0000000000000000000, 0.0000000000000000000, -1.000000000000000000 ) ) ;
#189 = DIRECTION ( 'NONE',  ( 1.000000000000000000, 0.0000000000000000000, 0.0000000000000000000 ) ) ;
#190 = ORIENTED_EDGE ( 'NONE', *, *, #317, .T. ) ;
#191 = DIRECTION ( 'NONE',  ( -0.0000000000000000000, -0.0000000000000000000, -1.000000000000000000 ) ) ;
#192 = ADVANCED_FACE ( 'NONE', ( #147 ), #290, .F. ) ;
#193 = EDGE_CURVE ( 'NONE', #369, #335, #75, .T. ) ;
#194 = ORIENTED_EDGE ( 'NONE', *, *, #227, .T. ) ;
#195 = ADVANCED_FACE ( 'NONE', ( #83, #374 ), #148, .F. ) ;
#196 = PRODUCT_DEFINITION_FORMATION_WITH_SPECIFIED_SOURCE ( 'LIBOVOLNÝ', '', #130, .NOT_KNOWN. ) ;
#197 = ORIENTED_EDGE ( 'NONE', *, *, #204, .F. ) ;
#198 = APPROVAL_STATUS ( 'not_yet_approved' ) ;
#199 = CARTESIAN_POINT ( 'NONE',  ( 0.0000000000000000000, 0.0000000000000000000, 15.00000000000000000 ) ) ;
#200 = CIRCLE ( 'NONE', #203, 8.449999999999999300 ) ;
#201 = VECTOR ( 'NONE', #156, 1000.000000000000100 ) ;
#202 = CARTESIAN_POINT ( 'NONE',  ( 8.149999999999996800, 9.980871413050926000E-016, 15.00000000000000000 ) ) ;
#203 = AXIS2_PLACEMENT_3D ( 'NONE', #247, #18, #210 ) ;
#204 = EDGE_CURVE ( 'NONE', #292, #28, #79, .T. ) ;
#205 = ORIENTED_EDGE ( 'NONE', *, *, #94, .T. ) ;
#206 = CARTESIAN_POINT ( 'NONE',  ( 8.449999999999999300, 1.034826545279513500E-015, 0.0000000000000000000 ) ) ;
#207 = DIRECTION ( 'NONE',  ( -0.8571673007021120000, 0.0000000000000000000, -0.5150380749100547100 ) ) ;
#208 = CIRCLE ( 'NONE', #231, 8.149999999999996800 ) ;
#209 = ORIENTED_EDGE ( 'NONE', *, *, #67, .F. ) ;
#210 = DIRECTION ( 'NONE',  ( 1.000000000000000000, 0.0000000000000000000, 0.0000000000000000000 ) ) ;
#211 = EDGE_LOOP ( 'NONE', ( #190, #219 ) ) ;
#212 = DIRECTION ( 'NONE',  ( -0.0000000000000000000, -0.0000000000000000000, -1.000000000000000000 ) ) ;
#213 = AXIS2_PLACEMENT_3D ( 'NONE', #325, #238, #356 ) ;
#214 = DIRECTION ( 'NONE',  ( -1.000000000000000000, 0.0000000000000000000, 0.0000000000000000000 ) ) ;
#215 = VECTOR ( 'NONE', #99, 1000.000000000000000 ) ;
#216 = AXIS2_PLACEMENT_3D ( 'NONE', #241, #299, #45 ) ;
#217 = ORIENTED_EDGE ( 'NONE', *, *, #7, .F. ) ;
#218 = DIRECTION ( 'NONE',  ( 0.7071067811865516800, 8.659560562354984600E-017, -0.7071067811865434600 ) ) ;
#219 = ORIENTED_EDGE ( 'NONE', *, *, #349, .T. ) ;
#220 = ORGANIZATION ( 'NEURÈENÝ', 'NEURÈENÝ', '' ) ;
#221 = LINE ( 'NONE', #47, #201 ) ;
#222 = ORIENTED_EDGE ( 'NONE', *, *, #336, .F. ) ;
#223 = ADVANCED_FACE ( 'NONE', ( #139 ), #243, .T. ) ;
#224 = PERSON_AND_ORGANIZATION_ROLE ( 'creator' ) ;
#225 = DATE_AND_TIME ( #233, #178 ) ;
#226 = ADVANCED_FACE ( 'NONE', ( #379 ), #265, .T. ) ;
#227 = EDGE_CURVE ( 'NONE', #369, #28, #313, .T. ) ;
#228 = ORIENTED_EDGE ( 'NONE', *, *, #324, .F. ) ;
#229 = EDGE_LOOP ( 'NONE', ( #209, #288 ) ) ;
#230 = DATE_AND_TIME ( #315, #168 ) ;
#231 = AXIS2_PLACEMENT_3D ( 'NONE', #363, #128, #72 ) ;
#232 = CARTESIAN_POINT ( 'NONE',  ( 0.0000000000000000000, 0.0000000000000000000, 0.2999999999999981600 ) ) ;
#233 = CALENDAR_DATE ( 2018, 17, 12 ) ;
#234 = CIRCLE ( 'NONE', #266, 8.149999999999996800 ) ;
#235 = CARTESIAN_POINT ( 'NONE',  ( 0.0000000000000000000, 0.0000000000000000000, 0.0000000000000000000 ) ) ;
#236 = EDGE_LOOP ( 'NONE', ( #228, #242, #5, #294 ) ) ;
#237 = AXIS2_PLACEMENT_3D ( 'NONE', #334, #188, #214 ) ;
#238 = DIRECTION ( 'NONE',  ( 0.0000000000000000000, 0.0000000000000000000, 1.000000000000000000 ) ) ;
#239 = CARTESIAN_POINT ( 'NONE',  ( -8.149999999999996800, 0.0000000000000000000, 15.00000000000000000 ) ) ;
#240 = DATE_AND_TIME ( #107, #35 ) ;
#241 = CARTESIAN_POINT ( 'NONE',  ( 0.0000000000000000000, 0.0000000000000000000, 21.00000000000000000 ) ) ;
#242 = ORIENTED_EDGE ( 'NONE', *, *, #359, .T. ) ;
#243 = PLANE ( 'NONE',  #216 ) ;
#244 = LINE ( 'NONE', #71, #308 ) ;
#245 = PERSON ( 'NEURÈENÝ', 'NEURÈENÝ', 'NEURÈENÝ', ('NEURÈENÝ'), ('NEURÈENÝ'), ('NEURÈENÝ') ) ;
#246 = CC_DESIGN_PERSON_AND_ORGANIZATION_ASSIGNMENT ( #332, #137, ( #196 ) ) ;
#247 = CARTESIAN_POINT ( 'NONE',  ( 0.0000000000000000000, 0.0000000000000000000, 0.0000000000000000000 ) ) ;
#248 = EDGE_LOOP ( 'NONE', ( #252, #194, #197, #319 ) ) ;
#249 = DIRECTION ( 'NONE',  ( -1.000000000000000000, 0.0000000000000000000, 0.0000000000000000000 ) ) ;
#250 = AXIS2_PLACEMENT_3D ( 'NONE', #33, #6, #64 ) ;
#251 = LOCAL_TIME ( 15, 12, 42.00000000000000000, #261 ) ;
#252 = ORIENTED_EDGE ( 'NONE', *, *, #193, .F. ) ;
#253 = CC_DESIGN_DATE_AND_TIME_ASSIGNMENT ( #225, #81, ( #90 ) ) ;
#254 = DIRECTION ( 'NONE',  ( -0.0000000000000000000, -0.0000000000000000000, -1.000000000000000000 ) ) ;
#255 = COORDINATED_UNIVERSAL_TIME_OFFSET ( 1, 0, .AHEAD. ) ;
#256 = ADVANCED_FACE ( 'NONE', ( #342 ), #347, .F. ) ;
#257 = AXIS2_PLACEMENT_3D ( 'NONE', #289, #269, #183 ) ;
#258 = SECURITY_CLASSIFICATION_LEVEL ( 'unclassified' ) ;
#259 = PRODUCT_DEFINITION ( 'NEZNÁMÝ', '', #196, #366 ) ;
#260 = APPROVAL_STATUS ( 'not_yet_approved' ) ;
#261 = COORDINATED_UNIVERSAL_TIME_OFFSET ( 1, 0, .AHEAD. ) ;
#262 = APPROVAL_STATUS ( 'not_yet_approved' ) ;
#263 = EDGE_LOOP ( 'NONE', ( #167, #149 ) ) ;
#264 = CALENDAR_DATE ( 2018, 17, 12 ) ;
#265 = CYLINDRICAL_SURFACE ( 'NONE', #85, 9.000000000000001800 ) ;
#266 = AXIS2_PLACEMENT_3D ( 'NONE', #296, #358, #121 ) ;
#267 = DIRECTION ( 'NONE',  ( 0.0000000000000000000, 0.0000000000000000000, 1.000000000000000000 ) ) ;
#268 = ORIENTED_EDGE ( 'NONE', *, *, #172, .F. ) ;
#269 = DIRECTION ( 'NONE',  ( -0.0000000000000000000, -0.0000000000000000000, -1.000000000000000000 ) ) ;
#270 = ORIENTED_EDGE ( 'NONE', *, *, #94, .F. ) ;
#271 = CARTESIAN_POINT ( 'NONE',  ( 7.500000000000018700, 1.010333609296567500E-015, 21.00000000000000000 ) ) ;
#272 = APPROVAL ( #262, 'NEURÈENÝ' ) ;
#273 = FACE_OUTER_BOUND ( 'NONE', #52, .T. ) ;
#274 = LINE ( 'NONE', #364, #43 ) ;
#275 = DIRECTION ( 'NONE',  ( -0.0000000000000000000, -0.0000000000000000000, -1.000000000000000000 ) ) ;
#276 = EDGE_CURVE ( 'NONE', #335, #292, #221, .T. ) ;
#277 = CARTESIAN_POINT ( 'NONE',  ( 7.500000000000018700, 9.184850993605173600E-016, 21.00000000000000000 ) ) ;
#278 = CARTESIAN_POINT ( 'NONE',  ( 8.149999999999996800, 9.980871413050926000E-016, 0.2999999999999981600 ) ) ;
#279 = CC_DESIGN_PERSON_AND_ORGANIZATION_ASSIGNMENT ( #165, #375, ( #196 ) ) ;
#280 = ORIENTED_EDGE ( 'NONE', *, *, #333, .F. ) ;
#281 = CARTESIAN_POINT ( 'NONE',  ( 0.0000000000000000000, 0.0000000000000000000, 0.0000000000000000000 ) ) ;
#282 = LOCAL_TIME ( 15, 12, 42.00000000000000000, #173 ) ;
#283 = EDGE_LOOP ( 'NONE', ( #129, #270, #345, #355 ) ) ;
#284 = AXIS2_PLACEMENT_3D ( 'NONE', #20, #191, #132 ) ;
#285 = APPROVAL_ROLE ( '' ) ;
#286 = PERSON_AND_ORGANIZATION_ROLE ( 'classification_officer' ) ;
#287 = APPLICATION_PROTOCOL_DEFINITION ( 'international standard', 'config_control_design', 1994, #138 ) ;
#288 = ORIENTED_EDGE ( 'NONE', *, *, #164, .F. ) ;
#289 = CARTESIAN_POINT ( 'NONE',  ( 0.0000000000000000000, 0.0000000000000000000, 21.00000000000000000 ) ) ;
#290 = CYLINDRICAL_SURFACE ( 'NONE', #1, 8.149999999999996800 ) ;
#291 = DIRECTION ( 'NONE',  ( -0.0000000000000000000, -0.0000000000000000000, -1.000000000000000000 ) ) ;
#292 = VERTEX_POINT ( 'NONE', #160 ) ;
#293 = AXIS2_PLACEMENT_3D ( 'NONE', #163, #49, #154 ) ;
#294 = ORIENTED_EDGE ( 'NONE', *, *, #155, .F. ) ;
#295 = EDGE_CURVE ( 'NONE', #51, #17, #274, .T. ) ;
#296 = CARTESIAN_POINT ( 'NONE',  ( 0.0000000000000000000, 0.0000000000000000000, 0.2999999999999981600 ) ) ;
#297 = APPROVAL_DATE_TIME ( #240, #272 ) ;
#298 = APPROVAL_DATE_TIME ( #23, #36 ) ;
#299 = DIRECTION ( 'NONE',  ( 0.0000000000000000000, 0.0000000000000000000, 1.000000000000000000 ) ) ;
#300 = UNCERTAINTY_MEASURE_WITH_UNIT (LENGTH_MEASURE( 1.000000000000000100E-005 ), #171, 'distance_accuracy_value', 'NONE');
#301 = DIRECTION ( 'NONE',  ( 1.000000000000000000, 0.0000000000000000000, 0.0000000000000000000 ) ) ;
#302 = CARTESIAN_POINT ( 'NONE',  ( -7.500000000000018700, 0.0000000000000000000, 21.00000000000000000 ) ) ;
#303 = ORIENTED_EDGE ( 'NONE', *, *, #127, .F. ) ;
#304 = ORIENTED_EDGE ( 'NONE', *, *, #377, .T. ) ;
#305 = CARTESIAN_POINT ( 'NONE',  ( 0.0000000000000000000, 0.0000000000000000000, 0.2999999999999981600 ) ) ;
#306 = ORIENTED_EDGE ( 'NONE', *, *, #295, .F. ) ;
#307 = ADVANCED_BREP_SHAPE_REPRESENTATION ( 'A10_0015-016', ( #32, #314 ), #376 ) ;
#308 = VECTOR ( 'NONE', #105, 1000.000000000000000 ) ;
#309 = CC_DESIGN_SECURITY_CLASSIFICATION ( #90, ( #196 ) ) ;
#310 = MECHANICAL_CONTEXT ( 'NONE', #108, 'mechanical' ) ;
#311 = PERSON_AND_ORGANIZATION ( #245, #220 ) ;
#312 = EDGE_CURVE ( 'NONE', #109, #51, #244, .T. ) ;
#313 = LINE ( 'NONE', #277, #340 ) ;
#314 = AXIS2_PLACEMENT_3D ( 'NONE', #281, #166, #25 ) ;
#315 = CALENDAR_DATE ( 2018, 17, 12 ) ;
#316 = LINE ( 'NONE', #330, #215 ) ;
#317 = EDGE_CURVE ( 'NONE', #4, #143, #200, .T. ) ;
#318 = CARTESIAN_POINT ( 'NONE',  ( -8.149999999999996800, 0.0000000000000000000, 0.2999999999999981600 ) ) ;
#319 = ORIENTED_EDGE ( 'NONE', *, *, #276, .F. ) ;
#320 = CARTESIAN_POINT ( 'NONE',  ( -8.449999999999999300, 0.0000000000000000000, 0.0000000000000000000 ) ) ;
#321 = FACE_OUTER_BOUND ( 'NONE', #248, .T. ) ;
#322 = CYLINDRICAL_SURFACE ( 'NONE', #58, 8.149999999999996800 ) ;
#323 = DIRECTION ( 'NONE',  ( -0.0000000000000000000, -0.0000000000000000000, -1.000000000000000000 ) ) ;
#324 = EDGE_CURVE ( 'NONE', #17, #65, #208, .T. ) ;
#325 = CARTESIAN_POINT ( 'NONE',  ( 0.0000000000000000000, 0.0000000000000000000, 0.0000000000000000000 ) ) ;
#326 = PERSON_AND_ORGANIZATION ( #245, #220 ) ;
#327 = CARTESIAN_POINT ( 'NONE',  ( 0.0000000000000000000, 0.0000000000000000000, 21.00000000000000000 ) ) ;
#328 = VERTEX_POINT ( 'NONE', #124 ) ;
#329 = CLOSED_SHELL ( 'NONE', ( #256, #133, #373, #337, #169, #226, #223, #195, #370, #140, #192, #53 ) ) ;
#330 = CARTESIAN_POINT ( 'NONE',  ( -9.000000000000001800, 0.0000000000000000000, 21.00000000000000000 ) ) ;
#331 = PRODUCT_RELATED_PRODUCT_CATEGORY ( 'detail', '', ( #130 ) ) ;
#332 = PERSON_AND_ORGANIZATION ( #245, #220 ) ;
#333 = EDGE_CURVE ( 'NONE', #28, #328, #89, .T. ) ;
#334 = CARTESIAN_POINT ( 'NONE',  ( 0.0000000000000000000, 0.0000000000000000000, 21.00000000000000000 ) ) ;
#335 = VERTEX_POINT ( 'NONE', #302 ) ;
#336 = EDGE_CURVE ( 'NONE', #28, #292, #135, .T. ) ;
#337 = ADVANCED_FACE ( 'NONE', ( #321 ), #92, .T. ) ;
#338 = AXIS2_PLACEMENT_3D ( 'NONE', #327, #267, #95 ) ;
#339 = APPROVAL_PERSON_ORGANIZATION ( #311, #372, #84 ) ;
#340 = VECTOR ( 'NONE', #126, 1000.000000000000100 ) ;
#341 =( NAMED_UNIT ( * ) PLANE_ANGLE_UNIT ( ) SI_UNIT ( $, .RADIAN. ) );
#342 = FACE_OUTER_BOUND ( 'NONE', #236, .T. ) ;
#343 = LINE ( 'NONE', #96, #26 ) ;
#344 = ORIENTED_EDGE ( 'NONE', *, *, #136, .T. ) ;
#345 = ORIENTED_EDGE ( 'NONE', *, *, #155, .T. ) ;
#346 = CIRCLE ( 'NONE', #131, 8.449999999999999300 ) ;
#347 = CONICAL_SURFACE ( 'NONE', #48, 8.149999999999996800, 0.7853981633974541600 ) ;
#348 = ORIENTED_EDGE ( 'NONE', *, *, #295, .T. ) ;
#349 = EDGE_CURVE ( 'NONE', #143, #4, #346, .T. ) ;
#350 = DIRECTION ( 'NONE',  ( -1.000000000000000000, 0.0000000000000000000, 0.0000000000000000000 ) ) ;
#351 = CARTESIAN_POINT ( 'NONE',  ( 0.0000000000000000000, 0.0000000000000000000, 21.00000000000000000 ) ) ;
#352 = VECTOR ( 'NONE', #34, 1000.000000000000000 ) ;
#353 = CONICAL_SURFACE ( 'NONE', #368, 8.149999999999996800, 0.7853981633974541600 ) ;
#354 = CC_DESIGN_DATE_AND_TIME_ASSIGNMENT ( #230, #110, ( #259 ) ) ;
#355 = ORIENTED_EDGE ( 'NONE', *, *, #349, .F. ) ;
#356 = DIRECTION ( 'NONE',  ( 1.000000000000000000, 0.0000000000000000000, -0.0000000000000000000 ) ) ;
#357 = ORIENTED_EDGE ( 'NONE', *, *, #136, .F. ) ;
#358 = DIRECTION ( 'NONE',  ( 0.0000000000000000000, 0.0000000000000000000, -1.000000000000000000 ) ) ;
#359 = EDGE_CURVE ( 'NONE', #17, #143, #15, .T. ) ;
#360 = DIRECTION ( 'NONE',  ( 0.0000000000000000000, 0.0000000000000000000, 1.000000000000000000 ) ) ;
#361 = SHAPE_DEFINITION_REPRESENTATION ( #177, #307 ) ;
#362 = EDGE_LOOP ( 'NONE', ( #66, #27, #304 ) ) ;
#363 = CARTESIAN_POINT ( 'NONE',  ( 0.0000000000000000000, 0.0000000000000000000, 0.2999999999999981600 ) ) ;
#364 = CARTESIAN_POINT ( 'NONE',  ( 8.149999999999996800, 9.980871413050926000E-016, 0.0000000000000000000 ) ) ;
#365 = CC_DESIGN_PERSON_AND_ORGANIZATION_ASSIGNMENT ( #142, #29, ( #130 ) ) ;
#366 = DESIGN_CONTEXT ( 'detailed design', #138, 'design' ) ;
#367 = CARTESIAN_POINT ( 'NONE',  ( 0.0000000000000000000, 0.0000000000000000000, 19.50000000000001800 ) ) ;
#368 = AXIS2_PLACEMENT_3D ( 'NONE', #232, #115, #91 ) ;
#369 = VERTEX_POINT ( 'NONE', #271 ) ;
#370 = ADVANCED_FACE ( 'NONE', ( #273 ), #59, .T. ) ;
#371 = PERSON_AND_ORGANIZATION ( #245, #220 ) ;
#372 = APPROVAL ( #260, 'NEURÈENÝ' ) ;
#373 = ADVANCED_FACE ( 'NONE', ( #187 ), #123, .F. ) ;
#374 = FACE_OUTER_BOUND ( 'NONE', #229, .T. ) ;
#375 = PERSON_AND_ORGANIZATION_ROLE ( 'creator' ) ;
#376 =( GEOMETRIC_REPRESENTATION_CONTEXT ( 3 ) GLOBAL_UNCERTAINTY_ASSIGNED_CONTEXT ( ( #300 ) ) GLOBAL_UNIT_ASSIGNED_CONTEXT ( ( #171, #341, #57 ) ) REPRESENTATION_CONTEXT ( 'NONE', 'WORKASPACE' ) );
#377 = EDGE_CURVE ( 'NONE', #51, #162, #78, .T. ) ;
#378 = VECTOR ( 'NONE', #275, 1000.000000000000000 ) ;
#379 = FACE_OUTER_BOUND ( 'NONE', #117, .T. ) ;
ENDSEC;
END-ISO-10303-21;
