ISO-10303-21;
HEADER;
FILE_DESCRIPTION (( 'STEP AP203' ),
    '1' );
FILE_NAME ('A_0040-016.STEP',
    '2024-07-11T10:45:11',
    ( '' ),
    ( '' ),
    'SwSTEP 2.0',
    'SolidWorks 2019',
    '' );
FILE_SCHEMA (( 'CONFIG_CONTROL_DESIGN' ));
ENDSEC;

DATA;
#1 = ORIENTED_EDGE ( 'NONE', *, *, #312, .F. ) ;
#2 = EDGE_CURVE ( 'NONE', #316, #111, #124, .T. ) ;
#3 = CARTESIAN_POINT ( 'NONE',  ( 0.000000000000000000, 0.000000000000000000, 0.000000000000000000 ) ) ;
#4 = FACE_OUTER_BOUND ( 'NONE', #156, .T. ) ;
#5 = CIRCLE ( 'NONE', #89, 8.500000000000010658 ) ;
#6 = EDGE_CURVE ( 'NONE', #137, #316, #31, .T. ) ;
#7 = CARTESIAN_POINT ( 'NONE',  ( -9.000000000000000000, 0.000000000000000000, 39.50000000000000711 ) ) ;
#8 = DIRECTION ( 'NONE',  ( 0.000000000000000000, 0.000000000000000000, 1.000000000000000000 ) ) ;
#9 = DIRECTION ( 'NONE',  ( 1.000000000000000000, 0.000000000000000000, 0.000000000000000000 ) ) ;
#10 = DIRECTION ( 'NONE',  ( -1.000000000000000000, 0.000000000000000000, 0.000000000000000000 ) ) ;
#11 = AXIS2_PLACEMENT_3D ( 'NONE', #223, #168, #332 ) ;
#12 = DIRECTION ( 'NONE',  ( 0.000000000000000000, 0.000000000000000000, -1.000000000000000000 ) ) ;
#13 = AXIS2_PLACEMENT_3D ( 'NONE', #343, #208, #70 ) ;
#14 = AXIS2_PLACEMENT_3D ( 'NONE', #300, #12, #255 ) ;
#15 = CARTESIAN_POINT ( 'NONE',  ( 8.150000000000000355, 9.980871413050929957E-16, 40.00000000000000000 ) ) ;
#16 = VECTOR ( 'NONE', #56, 1000.000000000000000 ) ;
#17 = FACE_OUTER_BOUND ( 'NONE', #186, .T. ) ;
#18 = APPROVAL_STATUS ( 'not_yet_approved' ) ;
#19 = APPROVAL_STATUS ( 'not_yet_approved' ) ;
#20 = ORIENTED_EDGE ( 'NONE', *, *, #225, .T. ) ;
#21 = DATE_TIME_ROLE ( 'classification_date' ) ;
#22 = ORIENTED_EDGE ( 'NONE', *, *, #140, .T. ) ;
#23 = AXIS2_PLACEMENT_3D ( 'NONE', #257, #279, #178 ) ;
#24 = DATE_AND_TIME ( #344, #328 ) ;
#25 = VERTEX_POINT ( 'NONE', #139 ) ;
#26 = PERSON_AND_ORGANIZATION ( #251, #98 ) ;
#27 = EDGE_LOOP ( 'NONE', ( #46, #319, #184, #321 ) ) ;
#28 = ORIENTED_EDGE ( 'NONE', *, *, #278, .T. ) ;
#29 = CARTESIAN_POINT ( 'NONE',  ( 0.000000000000000000, 0.000000000000000000, 0.000000000000000000 ) ) ;
#30 = EDGE_CURVE ( 'NONE', #270, #35, #5, .T. ) ;
#31 = LINE ( 'NONE', #62, #115 ) ;
#32 = PRODUCT_RELATED_PRODUCT_CATEGORY ( 'detail', '', ( #92 ) ) ;
#33 = DIRECTION ( 'NONE',  ( -0.000000000000000000, -0.000000000000000000, -1.000000000000000000 ) ) ;
#34 = DIRECTION ( 'NONE',  ( -1.000000000000000000, 0.000000000000000000, 0.000000000000000000 ) ) ;
#35 = VERTEX_POINT ( 'NONE', #274 ) ;
#36 = ADVANCED_FACE ( 'NONE', ( #4, #244 ), #198, .F. ) ;
#37 = CARTESIAN_POINT ( 'NONE',  ( 9.000000000000000000, 0.000000000000000000, 0.4999999999999865663 ) ) ;
#38 = FACE_OUTER_BOUND ( 'NONE', #210, .T. ) ;
#39 = LOCAL_TIME ( 12, 45, 11.00000000000000000, #345 ) ;
#40 = PRODUCT_DEFINITION_SHAPE ( 'NONE', 'NONE',  #330 ) ;
#41 = ADVANCED_FACE ( 'NONE', ( #90 ), #273, .F. ) ;
#42 = DIRECTION ( 'NONE',  ( -0.000000000000000000, -0.000000000000000000, -1.000000000000000000 ) ) ;
#43 = APPLICATION_CONTEXT ( 'configuration controlled 3d designs of mechanical parts and assemblies' ) ;
#44 = CARTESIAN_POINT ( 'NONE',  ( 0.000000000000000000, 0.000000000000000000, 40.00000000000000000 ) ) ;
#45 = FACE_BOUND ( 'NONE', #216, .T. ) ;
#46 = ORIENTED_EDGE ( 'NONE', *, *, #150, .F. ) ;
#47 = PERSON_AND_ORGANIZATION ( #251, #98 ) ;
#48 = ORIENTED_EDGE ( 'NONE', *, *, #66, .F. ) ;
#49 = AXIS2_PLACEMENT_3D ( 'NONE', #299, #117, #247 ) ;
#50 = APPROVAL_ROLE ( '' ) ;
#51 = ORIENTED_EDGE ( 'NONE', *, *, #154, .T. ) ;
#52 = EDGE_CURVE ( 'NONE', #263, #111, #122, .T. ) ;
#53 = SECURITY_CLASSIFICATION_LEVEL ( 'unclassified' ) ;
#54 = EDGE_LOOP ( 'NONE', ( #22, #293 ) ) ;
#55 = ORIENTED_EDGE ( 'NONE', *, *, #140, .F. ) ;
#56 = DIRECTION ( 'NONE',  ( -0.000000000000000000, -0.000000000000000000, -1.000000000000000000 ) ) ;
#57 = EDGE_CURVE ( 'NONE', #137, #263, #220, .T. ) ;
#58 = LINE ( 'NONE', #141, #16 ) ;
#59 = DIRECTION ( 'NONE',  ( 1.000000000000000000, 0.000000000000000000, 0.000000000000000000 ) ) ;
#60 = DIRECTION ( 'NONE',  ( -0.000000000000000000, -0.000000000000000000, 1.000000000000000000 ) ) ;
#61 = EDGE_CURVE ( 'NONE', #189, #25, #65, .T. ) ;
#62 = CARTESIAN_POINT ( 'NONE',  ( -9.000000000000000000, 0.000000000000000000, 40.00000000000000000 ) ) ;
#63 = CARTESIAN_POINT ( 'NONE',  ( -8.150000000000000355, 0.000000000000000000, 40.00000000000000000 ) ) ;
#64 = DIRECTION ( 'NONE',  ( -0.000000000000000000, -0.000000000000000000, -1.000000000000000000 ) ) ;
#65 = CIRCLE ( 'NONE', #224, 8.150000000000000355 ) ;
#66 = EDGE_CURVE ( 'NONE', #287, #212, #333, .T. ) ;
#67 = DIRECTION ( 'NONE',  ( 1.000000000000000000, 0.000000000000000000, -0.000000000000000000 ) ) ;
#68 = APPROVAL_PERSON_ORGANIZATION ( #260, #302, #50 ) ;
#69 = CARTESIAN_POINT ( 'NONE',  ( 8.500000000000000000, 1.040949779275250140E-15, 40.00000000000000000 ) ) ;
#70 = DIRECTION ( 'NONE',  ( 1.000000000000000000, 0.000000000000000000, 0.000000000000000000 ) ) ;
#71 = PERSON_AND_ORGANIZATION ( #251, #98 ) ;
#72 = ORIENTED_EDGE ( 'NONE', *, *, #225, .F. ) ;
#73 = AXIS2_PLACEMENT_3D ( 'NONE', #99, #147, #253 ) ;
#74 = APPROVAL_ROLE ( '' ) ;
#75 = ORIENTED_EDGE ( 'NONE', *, *, #57, .F. ) ;
#76 = CC_DESIGN_DATE_AND_TIME_ASSIGNMENT ( #238, #185, ( #330 ) ) ;
#77 = APPLICATION_CONTEXT ( 'configuration controlled 3d designs of mechanical parts and assemblies' ) ;
#78 = APPLICATION_PROTOCOL_DEFINITION ( 'international standard', 'config_control_design', 1994, #43 ) ;
#79 = ORIENTED_EDGE ( 'NONE', *, *, #100, .F. ) ;
#80 = CONICAL_SURFACE ( 'NONE', #275, 8.500000000000000000, 0.7853981633974533860 ) ;
#81 = PERSON_AND_ORGANIZATION ( #251, #98 ) ;
#82 = ORIENTED_EDGE ( 'NONE', *, *, #190, .T. ) ;
#83 = CARTESIAN_POINT ( 'NONE',  ( 0.000000000000000000, 0.000000000000000000, 0.4999999999999865663 ) ) ;
#84 = DESIGN_CONTEXT ( 'detailed design', #43, 'design' ) ;
#85 = DIRECTION ( 'NONE',  ( 1.000000000000000000, 0.000000000000000000, 0.000000000000000000 ) ) ;
#86 = DIRECTION ( 'NONE',  ( -0.000000000000000000, -0.000000000000000000, -1.000000000000000000 ) ) ;
#87 = DIRECTION ( 'NONE',  ( 1.000000000000000000, 0.000000000000000000, 0.000000000000000000 ) ) ;
#88 = EDGE_CURVE ( 'NONE', #35, #316, #325, .T. ) ;
#89 = AXIS2_PLACEMENT_3D ( 'NONE', #3, #217, #59 ) ;
#90 = FACE_OUTER_BOUND ( 'NONE', #296, .T. ) ;
#91 = DIRECTION ( 'NONE',  ( -0.7071067811865512365, 0.000000000000000000, -0.7071067811865439090 ) ) ;
#92 = PRODUCT ( 'A_0040-016', 'A_0040-016', '', ( #347 ) ) ;
#93 = VECTOR ( 'NONE', #280, 1000.000000000000000 ) ;
#94 = FACE_OUTER_BOUND ( 'NONE', #160, .T. ) ;
#95 = ADVANCED_FACE ( 'NONE', ( #121 ), #118, .T. ) ;
#96 = CARTESIAN_POINT ( 'NONE',  ( 8.150000000000000355, 9.980871413050929957E-16, 0.000000000000000000 ) ) ;
#97 = AXIS2_PLACEMENT_3D ( 'NONE', #29, #138, #165 ) ;
#98 = ORGANIZATION ( 'NEURÈENÝ', 'NEURÈENÝ', '' ) ;
#99 = CARTESIAN_POINT ( 'NONE',  ( 0.000000000000000000, 0.000000000000000000, 40.00000000000000000 ) ) ;
#100 = EDGE_CURVE ( 'NONE', #287, #25, #58, .T. ) ;
#101 = APPROVAL_DATE_TIME ( #24, #302 ) ;
#102 = ORIENTED_EDGE ( 'NONE', *, *, #52, .F. ) ;
#103 = VECTOR ( 'NONE', #199, 1000.000000000000000 ) ;
#104 = CALENDAR_DATE ( 2024, 11, 7 ) ;
#105 = ORIENTED_EDGE ( 'NONE', *, *, #2, .F. ) ;
#106 = CIRCLE ( 'NONE', #200, 9.000000000000000000 ) ;
#107 = ORIENTED_EDGE ( 'NONE', *, *, #283, .T. ) ;
#108 = CC_DESIGN_PERSON_AND_ORGANIZATION_ASSIGNMENT ( #323, #131, ( #92 ) ) ;
#109 = CC_DESIGN_SECURITY_CLASSIFICATION ( #206, ( #342 ) ) ;
#110 = DIRECTION ( 'NONE',  ( 1.000000000000000000, 0.000000000000000000, 0.000000000000000000 ) ) ;
#111 = VERTEX_POINT ( 'NONE', #162 ) ;
#112 = MANIFOLD_SOLID_BREP ( 'Zkosení1', #227 ) ;
#113 = APPROVAL_STATUS ( 'not_yet_approved' ) ;
#114 = ORIENTED_EDGE ( 'NONE', *, *, #218, .F. ) ;
#115 = VECTOR ( 'NONE', #86, 1000.000000000000000 ) ;
#116 = DIRECTION ( 'NONE',  ( 1.000000000000000000, 0.000000000000000000, 0.000000000000000000 ) ) ;
#117 = DIRECTION ( 'NONE',  ( 0.000000000000000000, 0.000000000000000000, 1.000000000000000000 ) ) ;
#118 = CONICAL_SURFACE ( 'NONE', #320, 9.000000000000000000, 0.7853981633974500554 ) ;
#119 = DIRECTION ( 'NONE',  ( 0.000000000000000000, 0.000000000000000000, -1.000000000000000000 ) ) ;
#120 = CC_DESIGN_APPROVAL ( #302, ( #342 ) ) ;
#121 = FACE_OUTER_BOUND ( 'NONE', #27, .T. ) ;
#122 = LINE ( 'NONE', #248, #103 ) ;
#123 = CYLINDRICAL_SURFACE ( 'NONE', #285, 9.000000000000000000 ) ;
#124 = CIRCLE ( 'NONE', #11, 9.000000000000000000 ) ;
#125 = CIRCLE ( 'NONE', #23, 8.500000000000000000 ) ;
#126 = CARTESIAN_POINT ( 'NONE',  ( 8.500000000000010658, 0.000000000000000000, 0.000000000000000000 ) ) ;
#127 = CYLINDRICAL_SURFACE ( 'NONE', #284, 9.000000000000000000 ) ;
#128 =( LENGTH_UNIT ( ) NAMED_UNIT ( * ) SI_UNIT ( .MILLI., .METRE. ) );
#129 = DIRECTION ( 'NONE',  ( -1.000000000000000000, 0.000000000000000000, 0.000000000000000000 ) ) ;
#130 = COORDINATED_UNIVERSAL_TIME_OFFSET ( 1, 0, .AHEAD. ) ;
#131 = PERSON_AND_ORGANIZATION_ROLE ( 'design_owner' ) ;
#132 = VERTEX_POINT ( 'NONE', #222 ) ;
#133 = ORIENTED_EDGE ( 'NONE', *, *, #57, .T. ) ;
#134 = COORDINATED_UNIVERSAL_TIME_OFFSET ( 1, 0, .AHEAD. ) ;
#135 = ORIENTED_EDGE ( 'NONE', *, *, #30, .F. ) ;
#136 = EDGE_LOOP ( 'NONE', ( #102, #28, #167, #314 ) ) ;
#137 = VERTEX_POINT ( 'NONE', #7 ) ;
#138 = DIRECTION ( 'NONE',  ( -0.000000000000000000, -0.000000000000000000, -1.000000000000000000 ) ) ;
#139 = CARTESIAN_POINT ( 'NONE',  ( -8.150000000000000355, 0.000000000000000000, 0.000000000000000000 ) ) ;
#140 = EDGE_CURVE ( 'NONE', #25, #189, #203, .T. ) ;
#141 = CARTESIAN_POINT ( 'NONE',  ( -8.150000000000000355, 0.000000000000000000, 40.00000000000000000 ) ) ;
#142 = CC_DESIGN_APPROVAL ( #264, ( #330 ) ) ;
#143 = CARTESIAN_POINT ( 'NONE',  ( 0.000000000000000000, 0.000000000000000000, 40.00000000000000000 ) ) ;
#144 = CARTESIAN_POINT ( 'NONE',  ( 0.000000000000000000, 0.000000000000000000, 0.000000000000000000 ) ) ;
#145 = DIRECTION ( 'NONE',  ( 0.000000000000000000, 0.000000000000000000, 1.000000000000000000 ) ) ;
#146 = LINE ( 'NONE', #69, #93 ) ;
#147 = DIRECTION ( 'NONE',  ( 0.000000000000000000, 0.000000000000000000, 1.000000000000000000 ) ) ;
#148 = LINE ( 'NONE', #259, #335 ) ;
#149 = AXIS2_PLACEMENT_3D ( 'NONE', #326, #197, #271 ) ;
#150 = EDGE_CURVE ( 'NONE', #35, #270, #246, .T. ) ;
#151 = CALENDAR_DATE ( 2024, 11, 7 ) ;
#152 = PERSON_AND_ORGANIZATION ( #251, #98 ) ;
#153 = ORIENTED_EDGE ( 'NONE', *, *, #6, .F. ) ;
#154 = EDGE_CURVE ( 'NONE', #212, #287, #338, .T. ) ;
#155 = CALENDAR_DATE ( 2024, 11, 7 ) ;
#156 = EDGE_LOOP ( 'NONE', ( #346, #192 ) ) ;
#157 = ORIENTED_EDGE ( 'NONE', *, *, #66, .T. ) ;
#158 = DATE_AND_TIME ( #155, #196 ) ;
#159 = ORIENTED_EDGE ( 'NONE', *, *, #154, .F. ) ;
#160 = EDGE_LOOP ( 'NONE', ( #72, #114, #262, #305 ) ) ;
#161 = EDGE_CURVE ( 'NONE', #111, #316, #106, .T. ) ;
#162 = CARTESIAN_POINT ( 'NONE',  ( 9.000000000000000000, 1.102182119232617714E-15, 0.4999999999999865663 ) ) ;
#163 = CONICAL_SURFACE ( 'NONE', #13, 9.000000000000000000, 0.7853981633974500554 ) ;
#164 = CONICAL_SURFACE ( 'NONE', #14, 8.500000000000000000, 0.7853981633974533860 ) ;
#165 = DIRECTION ( 'NONE',  ( 1.000000000000000000, 0.000000000000000000, 0.000000000000000000 ) ) ;
#166 = ADVANCED_FACE ( 'NONE', ( #329 ), #164, .T. ) ;
#167 = ORIENTED_EDGE ( 'NONE', *, *, #6, .T. ) ;
#168 = DIRECTION ( 'NONE',  ( -0.000000000000000000, -0.000000000000000000, 1.000000000000000000 ) ) ;
#169 = VECTOR ( 'NONE', #313, 1000.000000000000000 ) ;
#170 = DIRECTION ( 'NONE',  ( 0.000000000000000000, 0.000000000000000000, 1.000000000000000000 ) ) ;
#171 = CARTESIAN_POINT ( 'NONE',  ( 0.000000000000000000, 0.000000000000000000, 40.00000000000000000 ) ) ;
#172 = DIRECTION ( 'NONE',  ( -1.000000000000000000, 0.000000000000000000, 0.000000000000000000 ) ) ;
#173 = UNCERTAINTY_MEASURE_WITH_UNIT (LENGTH_MEASURE( 1.000000000000000082E-05 ), #128, 'distance_accuracy_value', 'NONE');
#174 = LOCAL_TIME ( 12, 45, 11.00000000000000000, #349 ) ;
#175 = FACE_OUTER_BOUND ( 'NONE', #182, .T. ) ;
#176 = CC_DESIGN_PERSON_AND_ORGANIZATION_ASSIGNMENT ( #47, #188, ( #342 ) ) ;
#177 = CARTESIAN_POINT ( 'NONE',  ( 8.150000000000000355, 9.980871413050929957E-16, 40.00000000000000000 ) ) ;
#178 = DIRECTION ( 'NONE',  ( 1.000000000000000000, 0.000000000000000000, 0.000000000000000000 ) ) ;
#179 = VECTOR ( 'NONE', #298, 1000.000000000000000 ) ;
#180 = AXIS2_PLACEMENT_3D ( 'NONE', #308, #64, #172 ) ;
#181 = PERSON_AND_ORGANIZATION_ROLE ( 'classification_officer' ) ;
#182 = EDGE_LOOP ( 'NONE', ( #215, #51, #237, #269 ) ) ;
#183 = CIRCLE ( 'NONE', #73, 8.500000000000000000 ) ;
#184 = ORIENTED_EDGE ( 'NONE', *, *, #161, .F. ) ;
#185 = DATE_TIME_ROLE ( 'creation_date' ) ;
#186 = EDGE_LOOP ( 'NONE', ( #289, #135, #107, #105 ) ) ;
#187 = APPROVAL_PERSON_ORGANIZATION ( #26, #264, #74 ) ;
#188 = PERSON_AND_ORGANIZATION_ROLE ( 'creator' ) ;
#189 = VERTEX_POINT ( 'NONE', #96 ) ;
#190 = EDGE_CURVE ( 'NONE', #212, #189, #337, .T. ) ;
#191 = DIRECTION ( 'NONE',  ( 0.000000000000000000, 0.000000000000000000, 1.000000000000000000 ) ) ;
#192 = ORIENTED_EDGE ( 'NONE', *, *, #150, .T. ) ;
#193 = DIRECTION ( 'NONE',  ( 1.000000000000000000, 0.000000000000000000, 0.000000000000000000 ) ) ;
#194 = CARTESIAN_POINT ( 'NONE',  ( 0.000000000000000000, 0.000000000000000000, 40.00000000000000000 ) ) ;
#195 = ADVANCED_FACE ( 'NONE', ( #336 ), #123, .T. ) ;
#196 = LOCAL_TIME ( 12, 45, 11.00000000000000000, #261 ) ;
#197 = DIRECTION ( 'NONE',  ( 0.000000000000000000, 0.000000000000000000, 1.000000000000000000 ) ) ;
#198 = PLANE ( 'NONE',  #252 ) ;
#199 = DIRECTION ( 'NONE',  ( -0.000000000000000000, -0.000000000000000000, -1.000000000000000000 ) ) ;
#200 = AXIS2_PLACEMENT_3D ( 'NONE', #272, #221, #87 ) ;
#201 = DIRECTION ( 'NONE',  ( 0.000000000000000000, 0.000000000000000000, -1.000000000000000000 ) ) ;
#202 = CARTESIAN_POINT ( 'NONE',  ( 0.000000000000000000, 0.000000000000000000, 39.50000000000000711 ) ) ;
#203 = CIRCLE ( 'NONE', #149, 8.150000000000000355 ) ;
#204 = LINE ( 'NONE', #37, #169 ) ;
#205 = CC_DESIGN_PERSON_AND_ORGANIZATION_ASSIGNMENT ( #81, #233, ( #330 ) ) ;
#206 = SECURITY_CLASSIFICATION ( '', '', #53 ) ;
#207 = DIRECTION ( 'NONE',  ( -0.000000000000000000, -0.000000000000000000, -1.000000000000000000 ) ) ;
#208 = DIRECTION ( 'NONE',  ( -0.000000000000000000, -0.000000000000000000, 1.000000000000000000 ) ) ;
#209 = PERSON_AND_ORGANIZATION ( #251, #98 ) ;
#210 = EDGE_LOOP ( 'NONE', ( #242, #213 ) ) ;
#211 = DATE_AND_TIME ( #104, #39 ) ;
#212 = VERTEX_POINT ( 'NONE', #15 ) ;
#213 = ORIENTED_EDGE ( 'NONE', *, *, #312, .T. ) ;
#214 =( NAMED_UNIT ( * ) PLANE_ANGLE_UNIT ( ) SI_UNIT ( $, .RADIAN. ) );
#215 = ORIENTED_EDGE ( 'NONE', *, *, #190, .F. ) ;
#216 = EDGE_LOOP ( 'NONE', ( #48, #159 ) ) ;
#217 = DIRECTION ( 'NONE',  ( -0.000000000000000000, -0.000000000000000000, -1.000000000000000000 ) ) ;
#218 = EDGE_CURVE ( 'NONE', #235, #132, #183, .T. ) ;
#219 = CARTESIAN_POINT ( 'NONE',  ( -9.000000000000000000, 1.102182119232617714E-15, 0.4999999999999865663 ) ) ;
#220 = CIRCLE ( 'NONE', #304, 9.000000000000000000 ) ;
#221 = DIRECTION ( 'NONE',  ( -0.000000000000000000, -0.000000000000000000, 1.000000000000000000 ) ) ;
#222 = CARTESIAN_POINT ( 'NONE',  ( 8.500000000000000000, 1.071565949253933927E-15, 40.00000000000000000 ) ) ;
#223 = CARTESIAN_POINT ( 'NONE',  ( 0.000000000000000000, 0.000000000000000000, 0.4999999999999865663 ) ) ;
#224 = AXIS2_PLACEMENT_3D ( 'NONE', #245, #8, #116 ) ;
#225 = EDGE_CURVE ( 'NONE', #132, #263, #146, .T. ) ;
#226 = DIRECTION ( 'NONE',  ( 0.000000000000000000, 0.000000000000000000, -1.000000000000000000 ) ) ;
#227 = CLOSED_SHELL ( 'NONE', ( #166, #95, #41, #195, #317, #36, #249, #341, #290, #230 ) ) ;
#228 = CYLINDRICAL_SURFACE ( 'NONE', #180, 8.150000000000000355 ) ;
#229 = CARTESIAN_POINT ( 'NONE',  ( 9.000000000000000000, 1.102182119232617714E-15, 39.50000000000000711 ) ) ;
#230 = ADVANCED_FACE ( 'NONE', ( #94 ), #80, .T. ) ;
#231 = APPROVAL ( #19, 'NEURÈENÝ' ) ;
#232 = DIRECTION ( 'NONE',  ( 1.000000000000000000, 0.000000000000000000, 0.000000000000000000 ) ) ;
#233 = PERSON_AND_ORGANIZATION_ROLE ( 'creator' ) ;
#234 = APPROVAL_ROLE ( '' ) ;
#235 = VERTEX_POINT ( 'NONE', #334 ) ;
#236 = CARTESIAN_POINT ( 'NONE',  ( 0.000000000000000000, 0.000000000000000000, 0.000000000000000000 ) ) ;
#237 = ORIENTED_EDGE ( 'NONE', *, *, #100, .T. ) ;
#238 = DATE_AND_TIME ( #151, #266 ) ;
#239 = ADVANCED_BREP_SHAPE_REPRESENTATION ( 'A_0040-016', ( #112, #291 ), #339 ) ;
#240 =( NAMED_UNIT ( * ) SI_UNIT ( $, .STERADIAN. ) SOLID_ANGLE_UNIT ( ) );
#241 = ORIENTED_EDGE ( 'NONE', *, *, #254, .F. ) ;
#242 = ORIENTED_EDGE ( 'NONE', *, *, #218, .T. ) ;
#243 = VECTOR ( 'NONE', #207, 1000.000000000000000 ) ;
#244 = FACE_BOUND ( 'NONE', #54, .T. ) ;
#245 = CARTESIAN_POINT ( 'NONE',  ( 0.000000000000000000, 0.000000000000000000, 0.000000000000000000 ) ) ;
#246 = CIRCLE ( 'NONE', #97, 8.500000000000010658 ) ;
#247 = DIRECTION ( 'NONE',  ( 1.000000000000000000, 0.000000000000000000, 0.000000000000000000 ) ) ;
#248 = CARTESIAN_POINT ( 'NONE',  ( 9.000000000000000000, 1.102182119232617714E-15, 40.00000000000000000 ) ) ;
#249 = ADVANCED_FACE ( 'NONE', ( #340 ), #127, .T. ) ;
#250 = PLANE ( 'NONE',  #281 ) ;
#251 = PERSON ( 'NEURÈENÝ', 'NEURÈENÝ', 'NEURÈENÝ', ('NEURÈENÝ'), ('NEURÈENÝ'), ('NEURÈENÝ') ) ;
#252 = AXIS2_PLACEMENT_3D ( 'NONE', #144, #170, #276 ) ;
#253 = DIRECTION ( 'NONE',  ( 1.000000000000000000, 0.000000000000000000, 0.000000000000000000 ) ) ;
#254 = EDGE_CURVE ( 'NONE', #235, #137, #148, .T. ) ;
#255 = DIRECTION ( 'NONE',  ( -1.000000000000000000, 0.000000000000000000, 0.000000000000000000 ) ) ;
#256 = CC_DESIGN_PERSON_AND_ORGANIZATION_ASSIGNMENT ( #71, #181, ( #206 ) ) ;
#257 = CARTESIAN_POINT ( 'NONE',  ( 0.000000000000000000, 0.000000000000000000, 40.00000000000000000 ) ) ;
#258 = AXIS2_PLACEMENT_3D ( 'NONE', #143, #33, #34 ) ;
#259 = CARTESIAN_POINT ( 'NONE',  ( -8.500000000000000000, 0.000000000000000000, 40.00000000000000000 ) ) ;
#260 = PERSON_AND_ORGANIZATION ( #251, #98 ) ;
#261 = COORDINATED_UNIVERSAL_TIME_OFFSET ( 1, 0, .AHEAD. ) ;
#262 = ORIENTED_EDGE ( 'NONE', *, *, #254, .T. ) ;
#263 = VERTEX_POINT ( 'NONE', #229 ) ;
#264 = APPROVAL ( #113, 'NEURÈENÝ' ) ;
#265 = DATE_AND_TIME ( #292, #174 ) ;
#266 = LOCAL_TIME ( 12, 45, 11.00000000000000000, #134 ) ;
#267 = EDGE_LOOP ( 'NONE', ( #1, #20, #75, #241 ) ) ;
#268 = CC_DESIGN_DATE_AND_TIME_ASSIGNMENT ( #158, #21, ( #206 ) ) ;
#269 = ORIENTED_EDGE ( 'NONE', *, *, #61, .F. ) ;
#270 = VERTEX_POINT ( 'NONE', #126 ) ;
#271 = DIRECTION ( 'NONE',  ( 1.000000000000000000, 0.000000000000000000, 0.000000000000000000 ) ) ;
#272 = CARTESIAN_POINT ( 'NONE',  ( 0.000000000000000000, 0.000000000000000000, 0.4999999999999865663 ) ) ;
#273 = CYLINDRICAL_SURFACE ( 'NONE', #258, 8.150000000000000355 ) ;
#274 = CARTESIAN_POINT ( 'NONE',  ( -8.500000000000010658, 1.071565949253934716E-15, 0.000000000000000000 ) ) ;
#275 = AXIS2_PLACEMENT_3D ( 'NONE', #44, #226, #129 ) ;
#276 = DIRECTION ( 'NONE',  ( 1.000000000000000000, 0.000000000000000000, -0.000000000000000000 ) ) ;
#277 = CARTESIAN_POINT ( 'NONE',  ( 0.000000000000000000, 0.000000000000000000, 40.00000000000000000 ) ) ;
#278 = EDGE_CURVE ( 'NONE', #263, #137, #327, .T. ) ;
#279 = DIRECTION ( 'NONE',  ( 0.000000000000000000, 0.000000000000000000, 1.000000000000000000 ) ) ;
#280 = DIRECTION ( 'NONE',  ( 0.7071067811865512365, 8.659560562354979697E-17, -0.7071067811865439090 ) ) ;
#281 = AXIS2_PLACEMENT_3D ( 'NONE', #171, #145, #67 ) ;
#282 = CARTESIAN_POINT ( 'NONE',  ( -9.000000000000000000, 0.000000000000000000, 0.4999999999999865663 ) ) ;
#283 = EDGE_CURVE ( 'NONE', #270, #111, #204, .T. ) ;
#284 = AXIS2_PLACEMENT_3D ( 'NONE', #277, #42, #307 ) ;
#285 = AXIS2_PLACEMENT_3D ( 'NONE', #309, #311, #10 ) ;
#286 = APPROVAL_DATE_TIME ( #265, #264 ) ;
#287 = VERTEX_POINT ( 'NONE', #63 ) ;
#288 = APPROVAL_DATE_TIME ( #211, #231 ) ;
#289 = ORIENTED_EDGE ( 'NONE', *, *, #88, .F. ) ;
#290 = ADVANCED_FACE ( 'NONE', ( #17 ), #163, .T. ) ;
#291 = AXIS2_PLACEMENT_3D ( 'NONE', #236, #191, #110 ) ;
#292 = CALENDAR_DATE ( 2024, 11, 7 ) ;
#293 = ORIENTED_EDGE ( 'NONE', *, *, #61, .T. ) ;
#294 = CC_DESIGN_PERSON_AND_ORGANIZATION_ASSIGNMENT ( #209, #295, ( #342 ) ) ;
#295 = PERSON_AND_ORGANIZATION_ROLE ( 'design_supplier' ) ;
#296 = EDGE_LOOP ( 'NONE', ( #157, #82, #55, #79 ) ) ;
#297 = ORIENTED_EDGE ( 'NONE', *, *, #161, .T. ) ;
#298 = DIRECTION ( 'NONE',  ( -0.7071067811865487940, 8.659560562354948882E-17, 0.7071067811865463515 ) ) ;
#299 = CARTESIAN_POINT ( 'NONE',  ( 0.000000000000000000, 0.000000000000000000, 40.00000000000000000 ) ) ;
#300 = CARTESIAN_POINT ( 'NONE',  ( 0.000000000000000000, 0.000000000000000000, 40.00000000000000000 ) ) ;
#301 = CC_DESIGN_APPROVAL ( #231, ( #206 ) ) ;
#302 = APPROVAL ( #18, 'NEURÈENÝ' ) ;
#303 = CARTESIAN_POINT ( 'NONE',  ( 0.000000000000000000, 0.000000000000000000, 39.50000000000000711 ) ) ;
#304 = AXIS2_PLACEMENT_3D ( 'NONE', #303, #119, #9 ) ;
#305 = ORIENTED_EDGE ( 'NONE', *, *, #278, .F. ) ;
#306 = AXIS2_PLACEMENT_3D ( 'NONE', #194, #331, #85 ) ;
#307 = DIRECTION ( 'NONE',  ( -1.000000000000000000, 0.000000000000000000, 0.000000000000000000 ) ) ;
#308 = CARTESIAN_POINT ( 'NONE',  ( 0.000000000000000000, 0.000000000000000000, 40.00000000000000000 ) ) ;
#309 = CARTESIAN_POINT ( 'NONE',  ( 0.000000000000000000, 0.000000000000000000, 40.00000000000000000 ) ) ;
#310 = APPROVAL_PERSON_ORGANIZATION ( #152, #231, #234 ) ;
#311 = DIRECTION ( 'NONE',  ( -0.000000000000000000, -0.000000000000000000, -1.000000000000000000 ) ) ;
#312 = EDGE_CURVE ( 'NONE', #132, #235, #125, .T. ) ;
#313 = DIRECTION ( 'NONE',  ( 0.7071067811865487940, 0.000000000000000000, 0.7071067811865463515 ) ) ;
#314 = ORIENTED_EDGE ( 'NONE', *, *, #2, .T. ) ;
#315 = SHAPE_DEFINITION_REPRESENTATION ( #40, #239 ) ;
#316 = VERTEX_POINT ( 'NONE', #282 ) ;
#317 = ADVANCED_FACE ( 'NONE', ( #38, #45 ), #250, .T. ) ;
#318 = APPLICATION_PROTOCOL_DEFINITION ( 'international standard', 'config_control_design', 1994, #77 ) ;
#319 = ORIENTED_EDGE ( 'NONE', *, *, #88, .T. ) ;
#320 = AXIS2_PLACEMENT_3D ( 'NONE', #83, #60, #193 ) ;
#321 = ORIENTED_EDGE ( 'NONE', *, *, #283, .F. ) ;
#322 = AXIS2_PLACEMENT_3D ( 'NONE', #202, #201, #232 ) ;
#323 = PERSON_AND_ORGANIZATION ( #251, #98 ) ;
#324 = ORIENTED_EDGE ( 'NONE', *, *, #52, .T. ) ;
#325 = LINE ( 'NONE', #219, #179 ) ;
#326 = CARTESIAN_POINT ( 'NONE',  ( 0.000000000000000000, 0.000000000000000000, 0.000000000000000000 ) ) ;
#327 = CIRCLE ( 'NONE', #322, 9.000000000000000000 ) ;
#328 = LOCAL_TIME ( 12, 45, 11.00000000000000000, #130 ) ;
#329 = FACE_OUTER_BOUND ( 'NONE', #267, .T. ) ;
#330 = PRODUCT_DEFINITION ( 'NEZNÁMÝ', '', #342, #84 ) ;
#331 = DIRECTION ( 'NONE',  ( 0.000000000000000000, 0.000000000000000000, 1.000000000000000000 ) ) ;
#332 = DIRECTION ( 'NONE',  ( 1.000000000000000000, 0.000000000000000000, 0.000000000000000000 ) ) ;
#333 = CIRCLE ( 'NONE', #49, 8.150000000000000355 ) ;
#334 = CARTESIAN_POINT ( 'NONE',  ( -8.500000000000000000, 0.000000000000000000, 40.00000000000000000 ) ) ;
#335 = VECTOR ( 'NONE', #91, 1000.000000000000000 ) ;
#336 = FACE_OUTER_BOUND ( 'NONE', #348, .T. ) ;
#337 = LINE ( 'NONE', #177, #243 ) ;
#338 = CIRCLE ( 'NONE', #306, 8.150000000000000355 ) ;
#339 =( GEOMETRIC_REPRESENTATION_CONTEXT ( 3 ) GLOBAL_UNCERTAINTY_ASSIGNED_CONTEXT ( ( #173 ) ) GLOBAL_UNIT_ASSIGNED_CONTEXT ( ( #128, #214, #240 ) ) REPRESENTATION_CONTEXT ( 'NONE', 'WORKASPACE' ) );
#340 = FACE_OUTER_BOUND ( 'NONE', #136, .T. ) ;
#341 = ADVANCED_FACE ( 'NONE', ( #175 ), #228, .F. ) ;
#342 = PRODUCT_DEFINITION_FORMATION_WITH_SPECIFIED_SOURCE ( 'LIBOVOLNÝ', '', #92, .NOT_KNOWN. ) ;
#343 = CARTESIAN_POINT ( 'NONE',  ( 0.000000000000000000, 0.000000000000000000, 0.4999999999999865663 ) ) ;
#344 = CALENDAR_DATE ( 2024, 11, 7 ) ;
#345 = COORDINATED_UNIVERSAL_TIME_OFFSET ( 1, 0, .AHEAD. ) ;
#346 = ORIENTED_EDGE ( 'NONE', *, *, #30, .T. ) ;
#347 = MECHANICAL_CONTEXT ( 'NONE', #77, 'mechanical' ) ;
#348 = EDGE_LOOP ( 'NONE', ( #133, #324, #297, #153 ) ) ;
#349 = COORDINATED_UNIVERSAL_TIME_OFFSET ( 1, 0, .AHEAD. ) ;
ENDSEC;
END-ISO-10303-21;
