ISO-10303-21;
HEADER;
FILE_DESCRIPTION (( 'STEP AP203' ),
    '1' );
FILE_NAME ('A_1732-050-10.STEP',
    '2024-12-02T09:40:52',
    ( '' ),
    ( '' ),
    'SwSTEP 2.0',
    'SolidWorks 2019',
    '' );
FILE_SCHEMA (( 'CONFIG_CONTROL_DESIGN' ));
ENDSEC;

DATA;
#1 = CARTESIAN_POINT ( 'NONE',  ( 0.000000000000000000, 0.000000000000000000, 0.000000000000000000 ) ) ;
#2 = ORIENTED_EDGE ( 'NONE', *, *, #198, .F. ) ;
#3 = APPROVAL_PERSON_ORGANIZATION ( #227, #5, #113 ) ;
#4 = CARTESIAN_POINT ( 'NONE',  ( -25.00000000000000000, 0.000000000000000000, 4.000000000000000000 ) ) ;
#5 = APPROVAL ( #18, 'NEURÈENÝ' ) ;
#6 = SECURITY_CLASSIFICATION ( '', '', #247 ) ;
#7 = PRODUCT_RELATED_PRODUCT_CATEGORY ( 'detail', '', ( #209 ) ) ;
#8 = VERTEX_POINT ( 'NONE', #66 ) ;
#9 = EDGE_LOOP ( 'NONE', ( #217, #96, #220, #143 ) ) ;
#10 = AXIS2_PLACEMENT_3D ( 'NONE', #148, #74, #162 ) ;
#11 = CARTESIAN_POINT ( 'NONE',  ( -5.250000000000000000, 0.000000000000000000, 4.000000000000000000 ) ) ;
#12 = FACE_OUTER_BOUND ( 'NONE', #160, .T. ) ;
#13 = CC_DESIGN_APPROVAL ( #86, ( #68 ) ) ;
#14 = APPROVAL_ROLE ( '' ) ;
#15 = ADVANCED_FACE ( 'NONE', ( #142, #30 ), #205, .F. ) ;
#16 = APPROVAL_ROLE ( '' ) ;
#17 = DIRECTION ( 'NONE',  ( 1.000000000000000000, 0.000000000000000000, 0.000000000000000000 ) ) ;
#18 = APPROVAL_STATUS ( 'not_yet_approved' ) ;
#19 = PERSON_AND_ORGANIZATION ( #64, #124 ) ;
#20 = CIRCLE ( 'NONE', #222, 25.00000000000000000 ) ;
#21 = VERTEX_POINT ( 'NONE', #48 ) ;
#22 = MANIFOLD_SOLID_BREP ( 'Pøidat vysunutím1', #63 ) ;
#23 = DIRECTION ( 'NONE',  ( 0.000000000000000000, 0.000000000000000000, 1.000000000000000000 ) ) ;
#24 = VERTEX_POINT ( 'NONE', #182 ) ;
#25 = CARTESIAN_POINT ( 'NONE',  ( 25.00000000000000000, 3.061616997868383043E-15, 0.000000000000000000 ) ) ;
#26 = APPROVAL ( #73, 'NEURÈENÝ' ) ;
#27 = LOCAL_TIME ( 10, 40, 52.00000000000000000, #193 ) ;
#28 = DIRECTION ( 'NONE',  ( 0.000000000000000000, 0.000000000000000000, 1.000000000000000000 ) ) ;
#29 = CARTESIAN_POINT ( 'NONE',  ( 25.00000000000000000, 3.061616997868383043E-15, 4.000000000000000000 ) ) ;
#30 = FACE_BOUND ( 'NONE', #239, .T. ) ;
#31 = EDGE_CURVE ( 'NONE', #172, #47, #204, .T. ) ;
#32 = DIRECTION ( 'NONE',  ( -0.000000000000000000, -0.000000000000000000, -1.000000000000000000 ) ) ;
#33 = AXIS2_PLACEMENT_3D ( 'NONE', #89, #232, #17 ) ;
#34 = COORDINATED_UNIVERSAL_TIME_OFFSET ( 1, 0, .AHEAD. ) ;
#35 = EDGE_CURVE ( 'NONE', #21, #24, #91, .T. ) ;
#36 = CARTESIAN_POINT ( 'NONE',  ( 0.000000000000000000, 0.000000000000000000, 4.000000000000000000 ) ) ;
#37 = PERSON_AND_ORGANIZATION ( #64, #124 ) ;
#38 = PRODUCT_DEFINITION_SHAPE ( 'NONE', 'NONE',  #94 ) ;
#39 = FACE_OUTER_BOUND ( 'NONE', #237, .T. ) ;
#40 = CARTESIAN_POINT ( 'NONE',  ( -25.00000000000000000, 0.000000000000000000, 4.000000000000000000 ) ) ;
#41 = PERSON_AND_ORGANIZATION ( #64, #124 ) ;
#42 = CARTESIAN_POINT ( 'NONE',  ( 0.000000000000000000, 0.000000000000000000, 0.000000000000000000 ) ) ;
#43 = VECTOR ( 'NONE', #108, 1000.000000000000000 ) ;
#44 = ORIENTED_EDGE ( 'NONE', *, *, #49, .F. ) ;
#45 = CYLINDRICAL_SURFACE ( 'NONE', #65, 25.00000000000000000 ) ;
#46 = LOCAL_TIME ( 10, 40, 52.00000000000000000, #34 ) ;
#47 = VERTEX_POINT ( 'NONE', #25 ) ;
#48 = CARTESIAN_POINT ( 'NONE',  ( -5.250000000000000000, 0.000000000000000000, 4.000000000000000000 ) ) ;
#49 = EDGE_CURVE ( 'NONE', #99, #8, #72, .T. ) ;
#50 = ADVANCED_FACE ( 'NONE', ( #60 ), #45, .T. ) ;
#51 = DATE_AND_TIME ( #55, #46 ) ;
#52 = CIRCLE ( 'NONE', #109, 25.00000000000000000 ) ;
#53 = CALENDAR_DATE ( 2024, 2, 12 ) ;
#54 = FACE_BOUND ( 'NONE', #103, .T. ) ;
#55 = CALENDAR_DATE ( 2024, 2, 12 ) ;
#56 = COORDINATED_UNIVERSAL_TIME_OFFSET ( 1, 0, .AHEAD. ) ;
#57 = VERTEX_POINT ( 'NONE', #201 ) ;
#58 = CC_DESIGN_APPROVAL ( #26, ( #6 ) ) ;
#59 = ORIENTED_EDGE ( 'NONE', *, *, #215, .F. ) ;
#60 = FACE_OUTER_BOUND ( 'NONE', #9, .T. ) ;
#61 = ORIENTED_EDGE ( 'NONE', *, *, #179, .T. ) ;
#62 = DIRECTION ( 'NONE',  ( 1.000000000000000000, 0.000000000000000000, 0.000000000000000000 ) ) ;
#63 = CLOSED_SHELL ( 'NONE', ( #223, #106, #131, #15, #50, #165 ) ) ;
#64 = PERSON ( 'NEURÈENÝ', 'NEURÈENÝ', 'NEURÈENÝ', ('NEURÈENÝ'), ('NEURÈENÝ'), ('NEURÈENÝ') ) ;
#65 = AXIS2_PLACEMENT_3D ( 'NONE', #221, #102, #120 ) ;
#66 = CARTESIAN_POINT ( 'NONE',  ( 5.250000000000000000, 6.429395695523604153E-16, 0.000000000000000000 ) ) ;
#67 = VERTEX_POINT ( 'NONE', #4 ) ;
#68 = PRODUCT_DEFINITION_FORMATION_WITH_SPECIFIED_SOURCE ( 'LIBOVOLNÝ', '', #209, .NOT_KNOWN. ) ;
#69 = CYLINDRICAL_SURFACE ( 'NONE', #116, 5.250000000000000000 ) ;
#70 = CARTESIAN_POINT ( 'NONE',  ( 25.00000000000000000, 3.061616997868383043E-15, 4.000000000000000000 ) ) ;
#71 = DATE_AND_TIME ( #191, #27 ) ;
#72 = CIRCLE ( 'NONE', #219, 5.250000000000000000 ) ;
#73 = APPROVAL_STATUS ( 'not_yet_approved' ) ;
#74 = DIRECTION ( 'NONE',  ( 0.000000000000000000, 0.000000000000000000, 1.000000000000000000 ) ) ;
#75 = PERSON_AND_ORGANIZATION ( #64, #124 ) ;
#76 = EDGE_CURVE ( 'NONE', #24, #8, #81, .T. ) ;
#77 = ORIENTED_EDGE ( 'NONE', *, *, #79, .F. ) ;
#78 = CARTESIAN_POINT ( 'NONE',  ( 0.000000000000000000, 0.000000000000000000, 0.000000000000000000 ) ) ;
#79 = EDGE_CURVE ( 'NONE', #8, #99, #159, .T. ) ;
#80 = ORIENTED_EDGE ( 'NONE', *, *, #79, .T. ) ;
#81 = LINE ( 'NONE', #158, #196 ) ;
#82 = AXIS2_PLACEMENT_3D ( 'NONE', #127, #214, #132 ) ;
#83 = ORIENTED_EDGE ( 'NONE', *, *, #123, .F. ) ;
#84 = EDGE_CURVE ( 'NONE', #57, #47, #20, .T. ) ;
#85 = CARTESIAN_POINT ( 'NONE',  ( 0.000000000000000000, 0.000000000000000000, 0.000000000000000000 ) ) ;
#86 = APPROVAL ( #95, 'NEURÈENÝ' ) ;
#87 = DIRECTION ( 'NONE',  ( 0.000000000000000000, 0.000000000000000000, 1.000000000000000000 ) ) ;
#88 = CARTESIAN_POINT ( 'NONE',  ( 0.000000000000000000, 0.000000000000000000, 4.000000000000000000 ) ) ;
#89 = CARTESIAN_POINT ( 'NONE',  ( 0.000000000000000000, 0.000000000000000000, 0.000000000000000000 ) ) ;
#90 = DATE_AND_TIME ( #53, #164 ) ;
#91 = CIRCLE ( 'NONE', #181, 5.250000000000000000 ) ;
#92 =( LENGTH_UNIT ( ) NAMED_UNIT ( * ) SI_UNIT ( .MILLI., .METRE. ) );
#93 = PERSON_AND_ORGANIZATION_ROLE ( 'design_owner' ) ;
#94 = PRODUCT_DEFINITION ( 'NEZNÁMÝ', '', #68, #115 ) ;
#95 = APPROVAL_STATUS ( 'not_yet_approved' ) ;
#96 = ORIENTED_EDGE ( 'NONE', *, *, #100, .F. ) ;
#97 = CC_DESIGN_PERSON_AND_ORGANIZATION_ASSIGNMENT ( #210, #150, ( #68 ) ) ;
#98 = VECTOR ( 'NONE', #32, 1000.000000000000000 ) ;
#99 = VERTEX_POINT ( 'NONE', #199 ) ;
#100 = EDGE_CURVE ( 'NONE', #67, #172, #52, .T. ) ;
#101 = DIRECTION ( 'NONE',  ( 0.000000000000000000, 0.000000000000000000, 1.000000000000000000 ) ) ;
#102 = DIRECTION ( 'NONE',  ( -0.000000000000000000, -0.000000000000000000, -1.000000000000000000 ) ) ;
#103 = EDGE_LOOP ( 'NONE', ( #119, #83 ) ) ;
#104 = DIRECTION ( 'NONE',  ( 1.000000000000000000, 0.000000000000000000, 0.000000000000000000 ) ) ;
#105 = APPROVAL_PERSON_ORGANIZATION ( #152, #86, #16 ) ;
#106 = ADVANCED_FACE ( 'NONE', ( #176 ), #114, .T. ) ;
#107 = CARTESIAN_POINT ( 'NONE',  ( 0.000000000000000000, 0.000000000000000000, 4.000000000000000000 ) ) ;
#108 = DIRECTION ( 'NONE',  ( -0.000000000000000000, -0.000000000000000000, -1.000000000000000000 ) ) ;
#109 = AXIS2_PLACEMENT_3D ( 'NONE', #238, #101, #62 ) ;
#110 = DIRECTION ( 'NONE',  ( 0.000000000000000000, 0.000000000000000000, 1.000000000000000000 ) ) ;
#111 = APPLICATION_PROTOCOL_DEFINITION ( 'international standard', 'config_control_design', 1994, #186 ) ;
#112 = CARTESIAN_POINT ( 'NONE',  ( 0.000000000000000000, 0.000000000000000000, 4.000000000000000000 ) ) ;
#113 = APPROVAL_ROLE ( '' ) ;
#114 = CYLINDRICAL_SURFACE ( 'NONE', #207, 25.00000000000000000 ) ;
#115 = DESIGN_CONTEXT ( 'detailed design', #186, 'design' ) ;
#116 = AXIS2_PLACEMENT_3D ( 'NONE', #169, #211, #212 ) ;
#117 = ORIENTED_EDGE ( 'NONE', *, *, #76, .T. ) ;
#118 = DIRECTION ( 'NONE',  ( 0.000000000000000000, 0.000000000000000000, 1.000000000000000000 ) ) ;
#119 = ORIENTED_EDGE ( 'NONE', *, *, #35, .F. ) ;
#120 = DIRECTION ( 'NONE',  ( -1.000000000000000000, 0.000000000000000000, 0.000000000000000000 ) ) ;
#121 = CC_DESIGN_DATE_AND_TIME_ASSIGNMENT ( #130, #163, ( #94 ) ) ;
#122 = AXIS2_PLACEMENT_3D ( 'NONE', #1, #118, #218 ) ;
#123 = EDGE_CURVE ( 'NONE', #24, #21, #128, .T. ) ;
#124 = ORGANIZATION ( 'NEURÈENÝ', 'NEURÈENÝ', '' ) ;
#125 = ORIENTED_EDGE ( 'NONE', *, *, #35, .T. ) ;
#126 = ORIENTED_EDGE ( 'NONE', *, *, #198, .T. ) ;
#127 = CARTESIAN_POINT ( 'NONE',  ( 0.000000000000000000, 0.000000000000000000, 4.000000000000000000 ) ) ;
#128 = CIRCLE ( 'NONE', #10, 5.250000000000000000 ) ;
#129 =( NAMED_UNIT ( * ) PLANE_ANGLE_UNIT ( ) SI_UNIT ( $, .RADIAN. ) );
#130 = DATE_AND_TIME ( #231, #147 ) ;
#131 = ADVANCED_FACE ( 'NONE', ( #134, #54 ), #241, .T. ) ;
#132 = DIRECTION ( 'NONE',  ( 1.000000000000000000, 0.000000000000000000, -0.000000000000000000 ) ) ;
#133 = APPROVAL_DATE_TIME ( #51, #26 ) ;
#134 = FACE_OUTER_BOUND ( 'NONE', #175, .T. ) ;
#135 = APPROVAL_DATE_TIME ( #90, #86 ) ;
#136 = AXIS2_PLACEMENT_3D ( 'NONE', #230, #87, #229 ) ;
#137 = ORIENTED_EDGE ( 'NONE', *, *, #123, .T. ) ;
#138 = DIRECTION ( 'NONE',  ( 0.000000000000000000, 0.000000000000000000, 1.000000000000000000 ) ) ;
#139 = ORIENTED_EDGE ( 'NONE', *, *, #215, .T. ) ;
#140 = DIRECTION ( 'NONE',  ( 1.000000000000000000, 0.000000000000000000, 0.000000000000000000 ) ) ;
#141 = CC_DESIGN_DATE_AND_TIME_ASSIGNMENT ( #245, #244, ( #6 ) ) ;
#142 = FACE_OUTER_BOUND ( 'NONE', #240, .T. ) ;
#143 = ORIENTED_EDGE ( 'NONE', *, *, #84, .T. ) ;
#144 = ADVANCED_BREP_SHAPE_REPRESENTATION ( 'A_1732-050-10', ( #22, #136 ), #202 ) ;
#145 = UNCERTAINTY_MEASURE_WITH_UNIT (LENGTH_MEASURE( 1.000000000000000082E-05 ), #92, 'distance_accuracy_value', 'NONE');
#146 = CC_DESIGN_PERSON_AND_ORGANIZATION_ASSIGNMENT ( #37, #93, ( #209 ) ) ;
#147 = LOCAL_TIME ( 10, 40, 52.00000000000000000, #171 ) ;
#148 = CARTESIAN_POINT ( 'NONE',  ( 0.000000000000000000, 0.000000000000000000, 4.000000000000000000 ) ) ;
#149 = PERSON_AND_ORGANIZATION_ROLE ( 'creator' ) ;
#150 = PERSON_AND_ORGANIZATION_ROLE ( 'creator' ) ;
#151 = DIRECTION ( 'NONE',  ( -0.000000000000000000, -0.000000000000000000, -1.000000000000000000 ) ) ;
#152 = PERSON_AND_ORGANIZATION ( #64, #124 ) ;
#153 = VECTOR ( 'NONE', #151, 1000.000000000000000 ) ;
#154 = ORIENTED_EDGE ( 'NONE', *, *, #49, .T. ) ;
#155 = DIRECTION ( 'NONE',  ( 1.000000000000000000, 0.000000000000000000, 0.000000000000000000 ) ) ;
#156 = APPROVAL_PERSON_ORGANIZATION ( #19, #26, #14 ) ;
#157 = EDGE_LOOP ( 'NONE', ( #248, #225, #139, #197 ) ) ;
#158 = CARTESIAN_POINT ( 'NONE',  ( 5.250000000000000000, 6.429395695523604153E-16, 4.000000000000000000 ) ) ;
#159 = CIRCLE ( 'NONE', #122, 5.250000000000000000 ) ;
#160 = EDGE_LOOP ( 'NONE', ( #183, #137, #126, #77 ) ) ;
#161 = CC_DESIGN_PERSON_AND_ORGANIZATION_ASSIGNMENT ( #167, #149, ( #94 ) ) ;
#162 = DIRECTION ( 'NONE',  ( 1.000000000000000000, 0.000000000000000000, 0.000000000000000000 ) ) ;
#163 = DATE_TIME_ROLE ( 'creation_date' ) ;
#164 = LOCAL_TIME ( 10, 40, 52.00000000000000000, #168 ) ;
#165 = ADVANCED_FACE ( 'NONE', ( #12 ), #69, .F. ) ;
#166 = CYLINDRICAL_SURFACE ( 'NONE', #174, 5.250000000000000000 ) ;
#167 = PERSON_AND_ORGANIZATION ( #64, #124 ) ;
#168 = COORDINATED_UNIVERSAL_TIME_OFFSET ( 1, 0, .AHEAD. ) ;
#169 = CARTESIAN_POINT ( 'NONE',  ( 0.000000000000000000, 0.000000000000000000, 4.000000000000000000 ) ) ;
#170 = PERSON_AND_ORGANIZATION_ROLE ( 'design_supplier' ) ;
#171 = COORDINATED_UNIVERSAL_TIME_OFFSET ( 1, 0, .AHEAD. ) ;
#172 = VERTEX_POINT ( 'NONE', #70 ) ;
#173 = APPLICATION_CONTEXT ( 'configuration controlled 3d designs of mechanical parts and assemblies' ) ;
#174 = AXIS2_PLACEMENT_3D ( 'NONE', #112, #192, #226 ) ;
#175 = EDGE_LOOP ( 'NONE', ( #177, #61 ) ) ;
#176 = FACE_OUTER_BOUND ( 'NONE', #157, .T. ) ;
#177 = ORIENTED_EDGE ( 'NONE', *, *, #100, .T. ) ;
#178 = DIRECTION ( 'NONE',  ( -0.000000000000000000, -0.000000000000000000, -1.000000000000000000 ) ) ;
#179 = EDGE_CURVE ( 'NONE', #172, #67, #228, .T. ) ;
#180 = LOCAL_TIME ( 10, 40, 52.00000000000000000, #56 ) ;
#181 = AXIS2_PLACEMENT_3D ( 'NONE', #107, #138, #155 ) ;
#182 = CARTESIAN_POINT ( 'NONE',  ( 5.250000000000000000, 6.429395695523604153E-16, 4.000000000000000000 ) ) ;
#183 = ORIENTED_EDGE ( 'NONE', *, *, #76, .F. ) ;
#184 = CIRCLE ( 'NONE', #33, 25.00000000000000000 ) ;
#185 = CC_DESIGN_PERSON_AND_ORGANIZATION_ASSIGNMENT ( #75, #188, ( #6 ) ) ;
#186 = APPLICATION_CONTEXT ( 'configuration controlled 3d designs of mechanical parts and assemblies' ) ;
#187 = DIRECTION ( 'NONE',  ( -0.000000000000000000, -0.000000000000000000, -1.000000000000000000 ) ) ;
#188 = PERSON_AND_ORGANIZATION_ROLE ( 'classification_officer' ) ;
#189 = CC_DESIGN_SECURITY_CLASSIFICATION ( #6, ( #68 ) ) ;
#190 = LINE ( 'NONE', #11, #98 ) ;
#191 = CALENDAR_DATE ( 2024, 2, 12 ) ;
#192 = DIRECTION ( 'NONE',  ( -0.000000000000000000, -0.000000000000000000, -1.000000000000000000 ) ) ;
#193 = COORDINATED_UNIVERSAL_TIME_OFFSET ( 1, 0, .AHEAD. ) ;
#194 = APPROVAL_DATE_TIME ( #71, #5 ) ;
#195 = EDGE_CURVE ( 'NONE', #67, #57, #206, .T. ) ;
#196 = VECTOR ( 'NONE', #178, 1000.000000000000000 ) ;
#197 = ORIENTED_EDGE ( 'NONE', *, *, #195, .F. ) ;
#198 = EDGE_CURVE ( 'NONE', #21, #99, #190, .T. ) ;
#199 = CARTESIAN_POINT ( 'NONE',  ( -5.250000000000000000, 0.000000000000000000, 0.000000000000000000 ) ) ;
#200 = ORIENTED_EDGE ( 'NONE', *, *, #84, .F. ) ;
#201 = CARTESIAN_POINT ( 'NONE',  ( -25.00000000000000000, 0.000000000000000000, 0.000000000000000000 ) ) ;
#202 =( GEOMETRIC_REPRESENTATION_CONTEXT ( 3 ) GLOBAL_UNCERTAINTY_ASSIGNED_CONTEXT ( ( #145 ) ) GLOBAL_UNIT_ASSIGNED_CONTEXT ( ( #92, #129, #208 ) ) REPRESENTATION_CONTEXT ( 'NONE', 'WORKASPACE' ) );
#203 = AXIS2_PLACEMENT_3D ( 'NONE', #85, #28, #224 ) ;
#204 = LINE ( 'NONE', #29, #43 ) ;
#205 = PLANE ( 'NONE',  #203 ) ;
#206 = LINE ( 'NONE', #40, #153 ) ;
#207 = AXIS2_PLACEMENT_3D ( 'NONE', #36, #187, #243 ) ;
#208 =( NAMED_UNIT ( * ) SI_UNIT ( $, .STERADIAN. ) SOLID_ANGLE_UNIT ( ) );
#209 = PRODUCT ( 'A_1732-050-10', 'A_1732-050-10', '', ( #216 ) ) ;
#210 = PERSON_AND_ORGANIZATION ( #64, #124 ) ;
#211 = DIRECTION ( 'NONE',  ( -0.000000000000000000, -0.000000000000000000, -1.000000000000000000 ) ) ;
#212 = DIRECTION ( 'NONE',  ( -1.000000000000000000, 0.000000000000000000, 0.000000000000000000 ) ) ;
#213 = APPLICATION_PROTOCOL_DEFINITION ( 'international standard', 'config_control_design', 1994, #173 ) ;
#214 = DIRECTION ( 'NONE',  ( 0.000000000000000000, 0.000000000000000000, 1.000000000000000000 ) ) ;
#215 = EDGE_CURVE ( 'NONE', #47, #57, #184, .T. ) ;
#216 = MECHANICAL_CONTEXT ( 'NONE', #173, 'mechanical' ) ;
#217 = ORIENTED_EDGE ( 'NONE', *, *, #31, .F. ) ;
#218 = DIRECTION ( 'NONE',  ( 1.000000000000000000, 0.000000000000000000, 0.000000000000000000 ) ) ;
#219 = AXIS2_PLACEMENT_3D ( 'NONE', #78, #236, #140 ) ;
#220 = ORIENTED_EDGE ( 'NONE', *, *, #195, .T. ) ;
#221 = CARTESIAN_POINT ( 'NONE',  ( 0.000000000000000000, 0.000000000000000000, 4.000000000000000000 ) ) ;
#222 = AXIS2_PLACEMENT_3D ( 'NONE', #42, #23, #104 ) ;
#223 = ADVANCED_FACE ( 'NONE', ( #39 ), #166, .F. ) ;
#224 = DIRECTION ( 'NONE',  ( 1.000000000000000000, 0.000000000000000000, -0.000000000000000000 ) ) ;
#225 = ORIENTED_EDGE ( 'NONE', *, *, #31, .T. ) ;
#226 = DIRECTION ( 'NONE',  ( -1.000000000000000000, 0.000000000000000000, 0.000000000000000000 ) ) ;
#227 = PERSON_AND_ORGANIZATION ( #64, #124 ) ;
#228 = CIRCLE ( 'NONE', #249, 25.00000000000000000 ) ;
#229 = DIRECTION ( 'NONE',  ( 1.000000000000000000, 0.000000000000000000, 0.000000000000000000 ) ) ;
#230 = CARTESIAN_POINT ( 'NONE',  ( 0.000000000000000000, 0.000000000000000000, 0.000000000000000000 ) ) ;
#231 = CALENDAR_DATE ( 2024, 2, 12 ) ;
#232 = DIRECTION ( 'NONE',  ( 0.000000000000000000, 0.000000000000000000, 1.000000000000000000 ) ) ;
#233 = SHAPE_DEFINITION_REPRESENTATION ( #38, #144 ) ;
#234 = CC_DESIGN_PERSON_AND_ORGANIZATION_ASSIGNMENT ( #41, #170, ( #68 ) ) ;
#235 = CC_DESIGN_APPROVAL ( #5, ( #94 ) ) ;
#236 = DIRECTION ( 'NONE',  ( 0.000000000000000000, 0.000000000000000000, 1.000000000000000000 ) ) ;
#237 = EDGE_LOOP ( 'NONE', ( #125, #117, #44, #2 ) ) ;
#238 = CARTESIAN_POINT ( 'NONE',  ( 0.000000000000000000, 0.000000000000000000, 4.000000000000000000 ) ) ;
#239 = EDGE_LOOP ( 'NONE', ( #154, #80 ) ) ;
#240 = EDGE_LOOP ( 'NONE', ( #200, #59 ) ) ;
#241 = PLANE ( 'NONE',  #82 ) ;
#242 = CALENDAR_DATE ( 2024, 2, 12 ) ;
#243 = DIRECTION ( 'NONE',  ( -1.000000000000000000, 0.000000000000000000, 0.000000000000000000 ) ) ;
#244 = DATE_TIME_ROLE ( 'classification_date' ) ;
#245 = DATE_AND_TIME ( #242, #180 ) ;
#246 = DIRECTION ( 'NONE',  ( 1.000000000000000000, 0.000000000000000000, 0.000000000000000000 ) ) ;
#247 = SECURITY_CLASSIFICATION_LEVEL ( 'unclassified' ) ;
#248 = ORIENTED_EDGE ( 'NONE', *, *, #179, .F. ) ;
#249 = AXIS2_PLACEMENT_3D ( 'NONE', #88, #110, #246 ) ;
ENDSEC;
END-ISO-10303-21;
