ISO-10303-21;
HEADER;
FILE_DESCRIPTION (( 'STEP AP214' ),
    '1' );
FILE_NAME ('A_12x1,5-3000.STEP',
    '2021-08-25T11:43:35',
    ( '' ),
    ( '' ),
    'SwSTEP 2.0',
    'SolidWorks 2019',
    '' );
FILE_SCHEMA (( 'AUTOMOTIVE_DESIGN' ));
ENDSEC;

DATA;
#1 = UNCERTAINTY_MEASURE_WITH_UNIT (LENGTH_MEASURE( 1.000000000000000082E-05 ), #31, 'distance_accuracy_value', 'NONE');
#2 = PRESENTATION_LAYER_ASSIGNMENT (  '', '', ( #114 ) ) ;
#3 =( LENGTH_UNIT ( ) NAMED_UNIT ( * ) SI_UNIT ( .MILLI., .METRE. ) );
#4 = PRESENTATION_STYLE_ASSIGNMENT (( #54 ) ) ;
#5 = STYLED_ITEM ( 'NONE', ( #144 ), #95 ) ;
#6 = FACE_OUTER_BOUND ( 'NONE', #212, .T. ) ;
#7 = ORIENTED_EDGE ( 'NONE', *, *, #236, .T. ) ;
#8 =( LENGTH_UNIT ( ) NAMED_UNIT ( * ) SI_UNIT ( .MILLI., .METRE. ) );
#9 = DIRECTION ( 'NONE',  ( 0.000000000000000000, -1.000000000000000000, 0.000000000000000000 ) ) ;
#10 = FACE_BOUND ( 'NONE', #100, .T. ) ;
#11 = EDGE_CURVE ( 'NONE', #48, #86, #167, .T. ) ;
#12 = ORIENTED_EDGE ( 'NONE', *, *, #236, .F. ) ;
#13 = ORIENTED_EDGE ( 'NONE', *, *, #17, .T. ) ;
#14 = AXIS2_PLACEMENT_3D ( 'NONE', #156, #34, #72 ) ;
#15 = DIRECTION ( 'NONE',  ( 0.000000000000000000, -1.000000000000000000, 0.000000000000000000 ) ) ;
#16 = FACE_OUTER_BOUND ( 'NONE', #33, .T. ) ;
#17 = EDGE_CURVE ( 'NONE', #65, #25, #166, .T. ) ;
#18 = ADVANCED_FACE ( 'NONE', ( #10, #85 ), #152, .T. ) ;
#19 =( NAMED_UNIT ( * ) SI_UNIT ( $, .STERADIAN. ) SOLID_ANGLE_UNIT ( ) );
#20 = PRODUCT_CONTEXT ( 'NONE', #139, 'mechanical' ) ;
#21 = CIRCLE ( 'NONE', #89, 6.000000000000000000 ) ;
#22 =( NAMED_UNIT ( * ) PLANE_ANGLE_UNIT ( ) SI_UNIT ( $, .RADIAN. ) );
#23 = AXIS2_PLACEMENT_3D ( 'NONE', #44, #67, #193 ) ;
#24 =( NAMED_UNIT ( * ) PLANE_ANGLE_UNIT ( ) SI_UNIT ( $, .RADIAN. ) );
#25 = VERTEX_POINT ( 'NONE', #90 ) ;
#26 = FILL_AREA_STYLE_COLOUR ( '', #121 ) ;
#27 = CARTESIAN_POINT ( 'NONE',  ( 0.000000000000000000, -1500.000000000000000, 0.000000000000000000 ) ) ;
#28 = CARTESIAN_POINT ( 'NONE',  ( 7.347880794884119736E-16, 1500.000000000000000, 6.000000000000000000 ) ) ;
#29 = CARTESIAN_POINT ( 'NONE',  ( 0.000000000000000000, 1500.000000000000000, 0.000000000000000000 ) ) ;
#30 = CARTESIAN_POINT ( 'NONE',  ( 7.347880794884119736E-16, 1500.000000000000000, 6.000000000000000000 ) ) ;
#31 =( LENGTH_UNIT ( ) NAMED_UNIT ( * ) SI_UNIT ( .MILLI., .METRE. ) );
#32 = VERTEX_POINT ( 'NONE', #141 ) ;
#33 = EDGE_LOOP ( 'NONE', ( #70, #41, #12, #150 ) ) ;
#34 = DIRECTION ( 'NONE',  ( -0.000000000000000000, 1.000000000000000000, -0.000000000000000000 ) ) ;
#35 = PRESENTATION_STYLE_ASSIGNMENT (( #88 ) ) ;
#36 = EDGE_CURVE ( 'NONE', #86, #48, #215, .T. ) ;
#37 = EDGE_CURVE ( 'NONE', #25, #65, #202, .T. ) ;
#38 = PRESENTATION_LAYER_ASSIGNMENT (  '', '', ( #5 ) ) ;
#39 = FILL_AREA_STYLE_COLOUR ( '', #105 ) ;
#40 =( NAMED_UNIT ( * ) SI_UNIT ( $, .STERADIAN. ) SOLID_ANGLE_UNIT ( ) );
#41 = ORIENTED_EDGE ( 'NONE', *, *, #184, .T. ) ;
#42 = CARTESIAN_POINT ( 'NONE',  ( 0.000000000000000000, -1500.000000000000000, 0.000000000000000000 ) ) ;
#43 =( LENGTH_UNIT ( ) NAMED_UNIT ( * ) SI_UNIT ( .MILLI., .METRE. ) );
#44 = CARTESIAN_POINT ( 'NONE',  ( 0.000000000000000000, -1500.000000000000000, 0.000000000000000000 ) ) ;
#45 = DIRECTION ( 'NONE',  ( 0.000000000000000000, 0.000000000000000000, -1.000000000000000000 ) ) ;
#46 =( NAMED_UNIT ( * ) PLANE_ANGLE_UNIT ( ) SI_UNIT ( $, .RADIAN. ) );
#47 = ORIENTED_EDGE ( 'NONE', *, *, #186, .T. ) ;
#48 = VERTEX_POINT ( 'NONE', #177 ) ;
#49 = CARTESIAN_POINT ( 'NONE',  ( 7.347880794884119736E-16, -1500.000000000000000, 6.000000000000000000 ) ) ;
#50 = AXIS2_PLACEMENT_3D ( 'NONE', #231, #63, #134 ) ;
#51 = CARTESIAN_POINT ( 'NONE',  ( 0.000000000000000000, 1500.000000000000000, -4.500000000000000000 ) ) ;
#52 = COLOUR_RGB ( '',1.000000000000000000, 1.000000000000000000, 1.000000000000000000 ) ;
#53 = STYLED_ITEM ( 'NONE', ( #35 ), #78 ) ;
#54 = SURFACE_STYLE_USAGE ( .BOTH. , #165 ) ;
#55 = CARTESIAN_POINT ( 'NONE',  ( 0.000000000000000000, 2686.359872753245327, 0.000000000000000000 ) ) ;
#56 = ADVANCED_FACE ( 'NONE', ( #16 ), #239, .T. ) ;
#57 =( GEOMETRIC_REPRESENTATION_CONTEXT ( 3 ) GLOBAL_UNCERTAINTY_ASSIGNED_CONTEXT ( ( #59 ) ) GLOBAL_UNIT_ASSIGNED_CONTEXT ( ( #8, #190, #234 ) ) REPRESENTATION_CONTEXT ( 'NONE', 'WORKASPACE' ) );
#58 = PRODUCT_RELATED_PRODUCT_CATEGORY ( 'part', '', ( #127 ) ) ;
#59 = UNCERTAINTY_MEASURE_WITH_UNIT (LENGTH_MEASURE( 1.000000000000000082E-05 ), #8, 'distance_accuracy_value', 'NONE');
#60 = CYLINDRICAL_SURFACE ( 'NONE', #50, 4.500000000000000000 ) ;
#61 = EDGE_LOOP ( 'NONE', ( #66, #123 ) ) ;
#62 = DIRECTION ( 'NONE',  ( 0.000000000000000000, -1.000000000000000000, 0.000000000000000000 ) ) ;
#63 = DIRECTION ( 'NONE',  ( 0.000000000000000000, -1.000000000000000000, 0.000000000000000000 ) ) ;
#64 = AXIS2_PLACEMENT_3D ( 'NONE', #27, #173, #149 ) ;
#65 = VERTEX_POINT ( 'NONE', #51 ) ;
#66 = ORIENTED_EDGE ( 'NONE', *, *, #128, .F. ) ;
#67 = DIRECTION ( 'NONE',  ( 0.000000000000000000, 1.000000000000000000, 0.000000000000000000 ) ) ;
#68 = VERTEX_POINT ( 'NONE', #49 ) ;
#69 = AXIS2_PLACEMENT_3D ( 'NONE', #29, #172, #235 ) ;
#70 = ORIENTED_EDGE ( 'NONE', *, *, #128, .T. ) ;
#71 = UNCERTAINTY_MEASURE_WITH_UNIT (LENGTH_MEASURE( 1.000000000000000082E-05 ), #43, 'distance_accuracy_value', 'NONE');
#72 = DIRECTION ( 'NONE',  ( 0.000000000000000000, 0.000000000000000000, -1.000000000000000000 ) ) ;
#73 = FILL_AREA_STYLE_COLOUR ( '', #137 ) ;
#74 = VECTOR ( 'NONE', #210, 1000.000000000000000 ) ;
#75 =( NAMED_UNIT ( * ) PLANE_ANGLE_UNIT ( ) SI_UNIT ( $, .RADIAN. ) );
#76 = AXIS2_PLACEMENT_3D ( 'NONE', #55, #203, #108 ) ;
#77 = AXIS2_PLACEMENT_3D ( 'NONE', #111, #146, #226 ) ;
#78 = ADVANCED_FACE ( 'NONE', ( #221 ), #143, .F. ) ;
#79 = DIRECTION ( 'NONE',  ( 0.000000000000000000, -1.000000000000000000, 0.000000000000000000 ) ) ;
#80 = AXIS2_PLACEMENT_3D ( 'NONE', #168, #79, #45 ) ;
#81 =( NAMED_UNIT ( * ) SI_UNIT ( $, .STERADIAN. ) SOLID_ANGLE_UNIT ( ) );
#82 = ORIENTED_EDGE ( 'NONE', *, *, #11, .F. ) ;
#83 = FACE_BOUND ( 'NONE', #132, .T. ) ;
#84 =( GEOMETRIC_REPRESENTATION_CONTEXT ( 3 ) GLOBAL_UNCERTAINTY_ASSIGNED_CONTEXT ( ( #1 ) ) GLOBAL_UNIT_ASSIGNED_CONTEXT ( ( #31, #46, #81 ) ) REPRESENTATION_CONTEXT ( 'NONE', 'WORKASPACE' ) );
#85 = FACE_OUTER_BOUND ( 'NONE', #232, .T. ) ;
#86 = VERTEX_POINT ( 'NONE', #129 ) ;
#87 = EDGE_CURVE ( 'NONE', #155, #32, #175, .T. ) ;
#88 = SURFACE_STYLE_USAGE ( .BOTH. , #104 ) ;
#89 = AXIS2_PLACEMENT_3D ( 'NONE', #42, #213, #191 ) ;
#90 = CARTESIAN_POINT ( 'NONE',  ( 5.510910596163088569E-16, 1500.000000000000000, 4.500000000000000000 ) ) ;
#91 = STYLED_ITEM ( 'NONE', ( #188 ), #179 ) ;
#92 =( LENGTH_UNIT ( ) NAMED_UNIT ( * ) SI_UNIT ( .MILLI., .METRE. ) );
#93 = APPLICATION_PROTOCOL_DEFINITION ( 'draft international standard', 'automotive_design', 1998, #160 ) ;
#94 = FILL_AREA_STYLE_COLOUR ( '', #52 ) ;
#95 = MANIFOLD_SOLID_BREP ( 'Importovaný1', #225 ) ;
#96 = AXIS2_PLACEMENT_3D ( 'NONE', #106, #157, #126 ) ;
#97 = ORIENTED_EDGE ( 'NONE', *, *, #11, .T. ) ;
#98 = SURFACE_STYLE_FILL_AREA ( #196 ) ;
#99 = VECTOR ( 'NONE', #229, 1000.000000000000000 ) ;
#100 = EDGE_LOOP ( 'NONE', ( #97, #102 ) ) ;
#101 = CARTESIAN_POINT ( 'NONE',  ( 0.000000000000000000, 2686.359872753245327, -4.500000000000000000 ) ) ;
#102 = ORIENTED_EDGE ( 'NONE', *, *, #36, .T. ) ;
#103 = PRODUCT_DEFINITION ( 'NEZNÁMÝ', '', #164, #192 ) ;
#104 = SURFACE_SIDE_STYLE ('',( #125 ) ) ;
#105 = COLOUR_RGB ( '',0.4980392156862745168, 0.4980392156862745168, 0.4980392156862745168 ) ;
#106 = CARTESIAN_POINT ( 'NONE',  ( 0.000000000000000000, -1500.000000000000000, 0.000000000000000000 ) ) ;
#107 = ADVANCED_FACE ( 'NONE', ( #6 ), #135, .T. ) ;
#108 = DIRECTION ( 'NONE',  ( 0.000000000000000000, 0.000000000000000000, -1.000000000000000000 ) ) ;
#109 = AXIS2_PLACEMENT_3D ( 'NONE', #176, #15, #219 ) ;
#110 = SURFACE_STYLE_FILL_AREA ( #204 ) ;
#111 = CARTESIAN_POINT ( 'NONE',  ( 0.000000000000000000, 0.000000000000000000, 0.000000000000000000 ) ) ;
#112 = DIRECTION ( 'NONE',  ( 0.000000000000000000, -1.000000000000000000, 0.000000000000000000 ) ) ;
#113 = AXIS2_PLACEMENT_3D ( 'NONE', #227, #116, #122 ) ;
#114 = STYLED_ITEM ( 'NONE', ( #4 ), #242 ) ;
#115 = ORIENTED_EDGE ( 'NONE', *, *, #216, .F. ) ;
#116 = DIRECTION ( 'NONE',  ( 0.000000000000000000, -1.000000000000000000, 0.000000000000000000 ) ) ;
#117 = CARTESIAN_POINT ( 'NONE',  ( 5.510910596163088569E-16, 2686.359872753245327, 4.500000000000000000 ) ) ;
#118 = DIRECTION ( 'NONE',  ( 0.000000000000000000, -1.000000000000000000, 0.000000000000000000 ) ) ;
#119 = ORIENTED_EDGE ( 'NONE', *, *, #216, .T. ) ;
#120 = DIRECTION ( 'NONE',  ( 0.000000000000000000, 0.000000000000000000, -1.000000000000000000 ) ) ;
#121 = COLOUR_RGB ( '',0.3294117647058823484, 0.3372549019607843368, 0.3490196078431372362 ) ;
#122 = DIRECTION ( 'NONE',  ( 0.000000000000000000, 0.000000000000000000, -1.000000000000000000 ) ) ;
#123 = ORIENTED_EDGE ( 'NONE', *, *, #87, .F. ) ;
#124 = ORIENTED_EDGE ( 'NONE', *, *, #36, .F. ) ;
#125 = SURFACE_STYLE_FILL_AREA ( #201 ) ;
#126 = DIRECTION ( 'NONE',  ( 1.000000000000000000, 0.000000000000000000, 0.000000000000000000 ) ) ;
#127 = PRODUCT ( 'A_12x1,5-3000', 'A_12x1,5-3000', '', ( #20 ) ) ;
#128 = EDGE_CURVE ( 'NONE', #32, #155, #205, .T. ) ;
#129 = CARTESIAN_POINT ( 'NONE',  ( 5.510910596163088569E-16, -1500.000000000000000, 4.500000000000000000 ) ) ;
#130 =( GEOMETRIC_REPRESENTATION_CONTEXT ( 3 ) GLOBAL_UNCERTAINTY_ASSIGNED_CONTEXT ( ( #71 ) ) GLOBAL_UNIT_ASSIGNED_CONTEXT ( ( #43, #24, #147 ) ) REPRESENTATION_CONTEXT ( 'NONE', 'WORKASPACE' ) );
#131 = CARTESIAN_POINT ( 'NONE',  ( 0.000000000000000000, 1500.000000000000000, -6.000000000000000000 ) ) ;
#132 = EDGE_LOOP ( 'NONE', ( #174, #153 ) ) ;
#133 = LINE ( 'NONE', #117, #99 ) ;
#134 = DIRECTION ( 'NONE',  ( 0.000000000000000000, 0.000000000000000000, -1.000000000000000000 ) ) ;
#135 = CYLINDRICAL_SURFACE ( 'NONE', #80, 6.000000000000000000 ) ;
#136 = ORIENTED_EDGE ( 'NONE', *, *, #230, .T. ) ;
#137 = COLOUR_RGB ( '',0.3294117647058823484, 0.3372549019607843368, 0.3490196078431372362 ) ;
#138 = EDGE_LOOP ( 'NONE', ( #13, #119, #82, #237 ) ) ;
#139 = APPLICATION_CONTEXT ( 'automotive_design' ) ;
#140 = DIRECTION ( 'NONE',  ( 0.000000000000000000, 0.000000000000000000, -1.000000000000000000 ) ) ;
#141 = CARTESIAN_POINT ( 'NONE',  ( 0.000000000000000000, 1500.000000000000000, -6.000000000000000000 ) ) ;
#142 = PRESENTATION_LAYER_ASSIGNMENT (  '', '', ( #91 ) ) ;
#143 = CYLINDRICAL_SURFACE ( 'NONE', #76, 4.500000000000000000 ) ;
#144 = PRESENTATION_STYLE_ASSIGNMENT (( #161 ) ) ;
#145 =( GEOMETRIC_REPRESENTATION_CONTEXT ( 3 ) GLOBAL_UNCERTAINTY_ASSIGNED_CONTEXT ( ( #218 ) ) GLOBAL_UNIT_ASSIGNED_CONTEXT ( ( #3, #22, #40 ) ) REPRESENTATION_CONTEXT ( 'NONE', 'WORKASPACE' ) );
#146 = DIRECTION ( 'NONE',  ( 0.000000000000000000, 0.000000000000000000, 1.000000000000000000 ) ) ;
#147 =( NAMED_UNIT ( * ) SI_UNIT ( $, .STERADIAN. ) SOLID_ANGLE_UNIT ( ) );
#148 = CARTESIAN_POINT ( 'NONE',  ( 0.000000000000000000, 1500.000000000000000, 0.000000000000000000 ) ) ;
#149 = DIRECTION ( 'NONE',  ( 0.000000000000000000, 0.000000000000000000, -1.000000000000000000 ) ) ;
#150 = ORIENTED_EDGE ( 'NONE', *, *, #186, .F. ) ;
#151 = PLANE ( 'NONE',  #113 ) ;
#152 = PLANE ( 'NONE',  #154 ) ;
#153 = ORIENTED_EDGE ( 'NONE', *, *, #37, .F. ) ;
#154 = AXIS2_PLACEMENT_3D ( 'NONE', #200, #240, #140 ) ;
#155 = VERTEX_POINT ( 'NONE', #30 ) ;
#156 = CARTESIAN_POINT ( 'NONE',  ( 0.000000000000000000, 1500.000000000000000, 0.000000000000000000 ) ) ;
#157 = DIRECTION ( 'NONE',  ( 0.000000000000000000, 1.000000000000000000, 0.000000000000000000 ) ) ;
#158 = VECTOR ( 'NONE', #118, 1000.000000000000000 ) ;
#159 = CARTESIAN_POINT ( 'NONE',  ( 0.000000000000000000, 1500.000000000000000, 0.000000000000000000 ) ) ;
#160 = APPLICATION_CONTEXT ( 'automotive_design' ) ;
#161 = SURFACE_STYLE_USAGE ( .BOTH. , #180 ) ;
#162 = PRODUCT_DEFINITION_SHAPE ( 'NONE', 'NONE',  #103 ) ;
#163 = FILL_AREA_STYLE ('',( #94 ) ) ;
#164 = PRODUCT_DEFINITION_FORMATION_WITH_SPECIFIED_SOURCE ( 'LIBOVOLNÝ', '', #127, .NOT_KNOWN. ) ;
#165 = SURFACE_SIDE_STYLE ('',( #185 ) ) ;
#166 = CIRCLE ( 'NONE', #69, 4.500000000000000000 ) ;
#167 = CIRCLE ( 'NONE', #23, 4.500000000000000000 ) ;
#168 = CARTESIAN_POINT ( 'NONE',  ( 0.000000000000000000, 1500.000000000000000, 0.000000000000000000 ) ) ;
#169 = VERTEX_POINT ( 'NONE', #228 ) ;
#170 = SURFACE_SIDE_STYLE ('',( #98 ) ) ;
#171 = LINE ( 'NONE', #131, #220 ) ;
#172 = DIRECTION ( 'NONE',  ( -0.000000000000000000, 1.000000000000000000, -0.000000000000000000 ) ) ;
#173 = DIRECTION ( 'NONE',  ( 0.000000000000000000, -1.000000000000000000, 0.000000000000000000 ) ) ;
#174 = ORIENTED_EDGE ( 'NONE', *, *, #17, .F. ) ;
#175 = CIRCLE ( 'NONE', #206, 6.000000000000000000 ) ;
#176 = CARTESIAN_POINT ( 'NONE',  ( 0.000000000000000000, 1500.000000000000000, 0.000000000000000000 ) ) ;
#177 = CARTESIAN_POINT ( 'NONE',  ( 0.000000000000000000, -1500.000000000000000, -4.500000000000000000 ) ) ;
#178 = MECHANICAL_DESIGN_GEOMETRIC_PRESENTATION_REPRESENTATION (  '', ( #114 ), #145 ) ;
#179 = ADVANCED_FACE ( 'NONE', ( #209 ), #60, .F. ) ;
#180 = SURFACE_SIDE_STYLE ('',( #110 ) ) ;
#181 = APPLICATION_PROTOCOL_DEFINITION ( 'draft international standard', 'automotive_design', 1998, #139 ) ;
#182 = MECHANICAL_DESIGN_GEOMETRIC_PRESENTATION_REPRESENTATION (  '', ( #91 ), #130 ) ;
#183 = UNCERTAINTY_MEASURE_WITH_UNIT (LENGTH_MEASURE( 1.000000000000000082E-05 ), #92, 'distance_accuracy_value', 'NONE');
#184 = EDGE_CURVE ( 'NONE', #155, #68, #211, .T. ) ;
#185 = SURFACE_STYLE_FILL_AREA ( #163 ) ;
#186 = EDGE_CURVE ( 'NONE', #32, #169, #171, .T. ) ;
#187 =( GEOMETRIC_REPRESENTATION_CONTEXT ( 3 ) GLOBAL_UNCERTAINTY_ASSIGNED_CONTEXT ( ( #183 ) ) GLOBAL_UNIT_ASSIGNED_CONTEXT ( ( #92, #75, #19 ) ) REPRESENTATION_CONTEXT ( 'NONE', 'WORKASPACE' ) );
#188 = PRESENTATION_STYLE_ASSIGNMENT (( #222 ) ) ;
#189 = ORIENTED_EDGE ( 'NONE', *, *, #87, .T. ) ;
#190 =( NAMED_UNIT ( * ) PLANE_ANGLE_UNIT ( ) SI_UNIT ( $, .RADIAN. ) );
#191 = DIRECTION ( 'NONE',  ( 0.000000000000000000, 0.000000000000000000, -1.000000000000000000 ) ) ;
#192 = PRODUCT_DEFINITION_CONTEXT ( 'detailed design', #160, 'design' ) ;
#193 = DIRECTION ( 'NONE',  ( 1.000000000000000000, 0.000000000000000000, 0.000000000000000000 ) ) ;
#194 = AXIS2_PLACEMENT_3D ( 'NONE', #148, #62, #120 ) ;
#195 = ADVANCED_FACE ( 'NONE', ( #83, #207 ), #151, .F. ) ;
#196 = FILL_AREA_STYLE ('',( #26 ) ) ;
#197 = LINE ( 'NONE', #101, #74 ) ;
#198 = ORIENTED_EDGE ( 'NONE', *, *, #243, .F. ) ;
#199 = EDGE_LOOP ( 'NONE', ( #115, #208, #136, #124 ) ) ;
#200 = CARTESIAN_POINT ( 'NONE',  ( 0.000000000000000000, -1500.000000000000000, 0.000000000000000000 ) ) ;
#201 = FILL_AREA_STYLE ('',( #73 ) ) ;
#202 = CIRCLE ( 'NONE', #14, 4.500000000000000000 ) ;
#203 = DIRECTION ( 'NONE',  ( 0.000000000000000000, -1.000000000000000000, 0.000000000000000000 ) ) ;
#204 = FILL_AREA_STYLE ('',( #39 ) ) ;
#205 = CIRCLE ( 'NONE', #194, 6.000000000000000000 ) ;
#206 = AXIS2_PLACEMENT_3D ( 'NONE', #159, #112, #244 ) ;
#207 = FACE_OUTER_BOUND ( 'NONE', #61, .T. ) ;
#208 = ORIENTED_EDGE ( 'NONE', *, *, #37, .T. ) ;
#209 = FACE_OUTER_BOUND ( 'NONE', #138, .T. ) ;
#210 = DIRECTION ( 'NONE',  ( 0.000000000000000000, -1.000000000000000000, 0.000000000000000000 ) ) ;
#211 = LINE ( 'NONE', #28, #158 ) ;
#212 = EDGE_LOOP ( 'NONE', ( #214, #189, #47, #198 ) ) ;
#213 = DIRECTION ( 'NONE',  ( 0.000000000000000000, -1.000000000000000000, 0.000000000000000000 ) ) ;
#214 = ORIENTED_EDGE ( 'NONE', *, *, #184, .F. ) ;
#215 = CIRCLE ( 'NONE', #96, 4.500000000000000000 ) ;
#216 = EDGE_CURVE ( 'NONE', #25, #86, #133, .T. ) ;
#217 = ORIENTED_EDGE ( 'NONE', *, *, #243, .T. ) ;
#218 = UNCERTAINTY_MEASURE_WITH_UNIT (LENGTH_MEASURE( 1.000000000000000082E-05 ), #3, 'distance_accuracy_value', 'NONE');
#219 = DIRECTION ( 'NONE',  ( 0.000000000000000000, 0.000000000000000000, -1.000000000000000000 ) ) ;
#220 = VECTOR ( 'NONE', #9, 1000.000000000000000 ) ;
#221 = FACE_OUTER_BOUND ( 'NONE', #199, .T. ) ;
#222 = SURFACE_STYLE_USAGE ( .BOTH. , #170 ) ;
#223 = PRESENTATION_LAYER_ASSIGNMENT (  '', '', ( #53 ) ) ;
#224 = SHAPE_DEFINITION_REPRESENTATION ( #162, #242 ) ;
#225 = CLOSED_SHELL ( 'NONE', ( #179, #56, #107, #195, #18, #78 ) ) ;
#226 = DIRECTION ( 'NONE',  ( 1.000000000000000000, 0.000000000000000000, 0.000000000000000000 ) ) ;
#227 = CARTESIAN_POINT ( 'NONE',  ( 0.000000000000000000, 1500.000000000000000, 0.000000000000000000 ) ) ;
#228 = CARTESIAN_POINT ( 'NONE',  ( 0.000000000000000000, -1500.000000000000000, -6.000000000000000000 ) ) ;
#229 = DIRECTION ( 'NONE',  ( 0.000000000000000000, -1.000000000000000000, 0.000000000000000000 ) ) ;
#230 = EDGE_CURVE ( 'NONE', #65, #48, #197, .T. ) ;
#231 = CARTESIAN_POINT ( 'NONE',  ( 0.000000000000000000, 2686.359872753245327, 0.000000000000000000 ) ) ;
#232 = EDGE_LOOP ( 'NONE', ( #7, #217 ) ) ;
#233 = CIRCLE ( 'NONE', #64, 6.000000000000000000 ) ;
#234 =( NAMED_UNIT ( * ) SI_UNIT ( $, .STERADIAN. ) SOLID_ANGLE_UNIT ( ) );
#235 = DIRECTION ( 'NONE',  ( 0.000000000000000000, 0.000000000000000000, -1.000000000000000000 ) ) ;
#236 = EDGE_CURVE ( 'NONE', #169, #68, #21, .T. ) ;
#237 = ORIENTED_EDGE ( 'NONE', *, *, #230, .F. ) ;
#238 = MECHANICAL_DESIGN_GEOMETRIC_PRESENTATION_REPRESENTATION (  '', ( #53 ), #187 ) ;
#239 = CYLINDRICAL_SURFACE ( 'NONE', #109, 6.000000000000000000 ) ;
#240 = DIRECTION ( 'NONE',  ( 0.000000000000000000, -1.000000000000000000, 0.000000000000000000 ) ) ;
#241 = MECHANICAL_DESIGN_GEOMETRIC_PRESENTATION_REPRESENTATION (  '', ( #5 ), #57 ) ;
#242 = ADVANCED_BREP_SHAPE_REPRESENTATION ( 'A_12x1,5-3000', ( #95, #77 ), #84 ) ;
#243 = EDGE_CURVE ( 'NONE', #68, #169, #233, .T. ) ;
#244 = DIRECTION ( 'NONE',  ( 0.000000000000000000, 0.000000000000000000, -1.000000000000000000 ) ) ;
ENDSEC;
END-ISO-10303-21;
