ISO-10303-21;
HEADER;
FILE_DESCRIPTION (( 'STEP AP203' ),
    '1' );
FILE_NAME ('A_1305-233.STEP',
    '2022-06-24T04:56:09',
    ( '' ),
    ( '' ),
    'SwSTEP 2.0',
    'SolidWorks 2019',
    '' );
FILE_SCHEMA (( 'CONFIG_CONTROL_DESIGN' ));
ENDSEC;

DATA;
#1 = EDGE_LOOP ( 'NONE', ( #139, #206 ) ) ;
#2 = DIRECTION ( 'NONE',  ( 0.000000000000000000, 0.000000000000000000, -1.000000000000000000 ) ) ;
#3 = DIRECTION ( 'NONE',  ( -0.000000000000000000, -0.000000000000000000, -1.000000000000000000 ) ) ;
#4 = MECHANICAL_CONTEXT ( 'NONE', #100, 'mechanical' ) ;
#5 = CIRCLE ( 'NONE', #193, 14.85000000000000142 ) ;
#6 = DATE_AND_TIME ( #188, #37 ) ;
#7 = ADVANCED_FACE ( 'NONE', ( #147, #226 ), #250, .F. ) ;
#8 = APPROVAL_DATE_TIME ( #30, #17 ) ;
#9 = TOROIDAL_SURFACE ( 'NONE', #161, 38.00000000000000000, 16.85000000000000142 ) ;
#10 = ADVANCED_FACE ( 'NONE', ( #227 ), #129, .F. ) ;
#11 = CALENDAR_DATE ( 2022, 24, 6 ) ;
#12 = EDGE_LOOP ( 'NONE', ( #75, #225 ) ) ;
#13 = CC_DESIGN_APPROVAL ( #134, ( #66 ) ) ;
#14 = APPROVAL_STATUS ( 'not_yet_approved' ) ;
#15 = DIRECTION ( 'NONE',  ( -1.000000000000000000, 0.000000000000000000, 0.000000000000000000 ) ) ;
#16 = APPLICATION_CONTEXT ( 'configuration controlled 3d designs of mechanical parts and assemblies' ) ;
#17 = APPROVAL ( #14, 'NEURÈENÝ' ) ;
#18 = CARTESIAN_POINT ( 'NONE',  ( 0.000000000000000000, 0.000000000000000000, 0.000000000000000000 ) ) ;
#19 = DIRECTION ( 'NONE',  ( -0.000000000000000000, -0.000000000000000000, -1.000000000000000000 ) ) ;
#20 = CIRCLE ( 'NONE', #158, 14.85000000000000142 ) ;
#21 = DIRECTION ( 'NONE',  ( 6.123233995736766036E-17, 1.000000000000000000, 0.000000000000000000 ) ) ;
#22 = AXIS2_PLACEMENT_3D ( 'NONE', #18, #36, #113 ) ;
#23 = ORIENTED_EDGE ( 'NONE', *, *, #229, .T. ) ;
#24 = ADVANCED_FACE ( 'NONE', ( #190 ), #9, .T. ) ;
#25 = DIRECTION ( 'NONE',  ( 0.000000000000000000, 0.000000000000000000, -1.000000000000000000 ) ) ;
#26 = DIRECTION ( 'NONE',  ( -1.000000000000000000, 0.000000000000000000, 0.000000000000000000 ) ) ;
#27 = VERTEX_POINT ( 'NONE', #189 ) ;
#28 = ORGANIZATION ( 'NEURÈENÝ', 'NEURÈENÝ', '' ) ;
#29 = CARTESIAN_POINT ( 'NONE',  ( -38.00000000000000000, 2.326828918379970970E-15, 0.000000000000000000 ) ) ;
#30 = DATE_AND_TIME ( #11, #155 ) ;
#31 = COORDINATED_UNIVERSAL_TIME_OFFSET ( 1, 0, .AHEAD. ) ;
#32 = APPROVAL_ROLE ( '' ) ;
#33 = APPROVAL_DATE_TIME ( #165, #46 ) ;
#34 = ORIENTED_EDGE ( 'NONE', *, *, #149, .F. ) ;
#35 = COORDINATED_UNIVERSAL_TIME_OFFSET ( 1, 0, .AHEAD. ) ;
#36 = DIRECTION ( 'NONE',  ( -0.000000000000000000, -0.000000000000000000, -1.000000000000000000 ) ) ;
#37 = LOCAL_TIME ( 6, 56, 9.000000000000000000, #246 ) ;
#38 = ORIENTED_EDGE ( 'NONE', *, *, #40, .T. ) ;
#39 = CARTESIAN_POINT ( 'NONE',  ( 0.000000000000000000, 0.000000000000000000, 0.000000000000000000 ) ) ;
#40 = EDGE_CURVE ( 'NONE', #48, #27, #58, .T. ) ;
#41 = DIRECTION ( 'NONE',  ( 0.000000000000000000, 0.000000000000000000, -1.000000000000000000 ) ) ;
#42 = CARTESIAN_POINT ( 'NONE',  ( 0.000000000000000000, 38.00000000000000000, 0.000000000000000000 ) ) ;
#43 = CC_DESIGN_APPROVAL ( #46, ( #65 ) ) ;
#44 = CIRCLE ( 'NONE', #228, 16.85000000000000142 ) ;
#45 = ORIENTED_EDGE ( 'NONE', *, *, #175, .F. ) ;
#46 = APPROVAL ( #105, 'NEURÈENÝ' ) ;
#47 = AXIS2_PLACEMENT_3D ( 'NONE', #180, #242, #25 ) ;
#48 = VERTEX_POINT ( 'NONE', #103 ) ;
#49 = DIRECTION ( 'NONE',  ( 1.000000000000000000, 0.000000000000000000, 0.000000000000000000 ) ) ;
#50 = DIRECTION ( 'NONE',  ( -1.000000000000000000, 0.000000000000000000, 0.000000000000000000 ) ) ;
#51 = AXIS2_PLACEMENT_3D ( 'NONE', #52, #124, #90 ) ;
#52 = CARTESIAN_POINT ( 'NONE',  ( 0.000000000000000000, 0.000000000000000000, 0.000000000000000000 ) ) ;
#53 = ORIENTED_EDGE ( 'NONE', *, *, #149, .T. ) ;
#54 = CIRCLE ( 'NONE', #87, 54.84999999999999432 ) ;
#55 = PERSON_AND_ORGANIZATION ( #69, #28 ) ;
#56 = ADVANCED_FACE ( 'NONE', ( #162 ), #231, .F. ) ;
#57 = PERSON_AND_ORGANIZATION_ROLE ( 'creator' ) ;
#58 = CIRCLE ( 'NONE', #212, 52.85000000000000142 ) ;
#59 = ORIENTED_EDGE ( 'NONE', *, *, #81, .T. ) ;
#60 = PERSON_AND_ORGANIZATION ( #69, #28 ) ;
#61 = VERTEX_POINT ( 'NONE', #201 ) ;
#62 = ORIENTED_EDGE ( 'NONE', *, *, #175, .T. ) ;
#63 = DIRECTION ( 'NONE',  ( 1.000000000000000000, 0.000000000000000000, 0.000000000000000000 ) ) ;
#64 = CARTESIAN_POINT ( 'NONE',  ( 0.000000000000000000, 21.14999999999999858, 2.063529856563290244E-15 ) ) ;
#65 = SECURITY_CLASSIFICATION ( '', '', #72 ) ;
#66 = PRODUCT_DEFINITION ( 'NEZNÁMÝ', '', #123, #150 ) ;
#67 = AXIS2_PLACEMENT_3D ( 'NONE', #29, #178, #122 ) ;
#68 = ORIENTED_EDGE ( 'NONE', *, *, #121, .F. ) ;
#69 = PERSON ( 'NEURÈENÝ', 'NEURÈENÝ', 'NEURÈENÝ', ('NEURÈENÝ'), ('NEURÈENÝ'), ('NEURÈENÝ') ) ;
#70 = CARTESIAN_POINT ( 'NONE',  ( -38.00000000000000000, 2.326828918379970970E-15, 0.000000000000000000 ) ) ;
#71 = CARTESIAN_POINT ( 'NONE',  ( 0.000000000000000000, 23.14999999999999858, 1.818600496733819948E-15 ) ) ;
#72 = SECURITY_CLASSIFICATION_LEVEL ( 'unclassified' ) ;
#73 = PERSON_AND_ORGANIZATION_ROLE ( 'creator' ) ;
#74 =( GEOMETRIC_REPRESENTATION_CONTEXT ( 3 ) GLOBAL_UNCERTAINTY_ASSIGNED_CONTEXT ( ( #116 ) ) GLOBAL_UNIT_ASSIGNED_CONTEXT ( ( #202, #219, #181 ) ) REPRESENTATION_CONTEXT ( 'NONE', 'WORKASPACE' ) );
#75 = ORIENTED_EDGE ( 'NONE', *, *, #121, .T. ) ;
#76 = EDGE_LOOP ( 'NONE', ( #59, #62, #83, #34 ) ) ;
#77 = CARTESIAN_POINT ( 'NONE',  ( 0.000000000000000000, 0.000000000000000000, 0.000000000000000000 ) ) ;
#78 = AXIS2_PLACEMENT_3D ( 'NONE', #42, #217, #222 ) ;
#79 = CARTESIAN_POINT ( 'NONE',  ( 0.000000000000000000, 0.000000000000000000, 1.818600496733819948E-15 ) ) ;
#80 = CIRCLE ( 'NONE', #47, 16.85000000000000142 ) ;
#81 = EDGE_CURVE ( 'NONE', #61, #200, #80, .T. ) ;
#82 = FACE_OUTER_BOUND ( 'NONE', #237, .T. ) ;
#83 = ORIENTED_EDGE ( 'NONE', *, *, #95, .F. ) ;
#84 = CIRCLE ( 'NONE', #195, 21.14999999999999858 ) ;
#85 = DIRECTION ( 'NONE',  ( -0.000000000000000000, -0.000000000000000000, -1.000000000000000000 ) ) ;
#86 = CARTESIAN_POINT ( 'NONE',  ( 0.000000000000000000, 0.000000000000000000, 2.063529856563290244E-15 ) ) ;
#87 = AXIS2_PLACEMENT_3D ( 'NONE', #209, #96, #230 ) ;
#88 = MANIFOLD_SOLID_BREP ( 'Táhnout po køivce1', #97 ) ;
#89 = PERSON_AND_ORGANIZATION ( #69, #28 ) ;
#90 = DIRECTION ( 'NONE',  ( 1.000000000000000000, 0.000000000000000000, 0.000000000000000000 ) ) ;
#91 = DATE_TIME_ROLE ( 'creation_date' ) ;
#92 = VERTEX_POINT ( 'NONE', #71 ) ;
#93 = CARTESIAN_POINT ( 'NONE',  ( -38.00000000000000000, 2.326828918379970970E-15, 0.000000000000000000 ) ) ;
#94 = AXIS2_PLACEMENT_3D ( 'NONE', #79, #136, #174 ) ;
#95 = EDGE_CURVE ( 'NONE', #211, #247, #210, .T. ) ;
#96 = DIRECTION ( 'NONE',  ( -0.000000000000000000, -0.000000000000000000, -1.000000000000000000 ) ) ;
#97 = CLOSED_SHELL ( 'NONE', ( #24, #56, #10, #236, #7, #194 ) ) ;
#98 = EDGE_CURVE ( 'NONE', #92, #27, #5, .T. ) ;
#99 = ORIENTED_EDGE ( 'NONE', *, *, #239, .F. ) ;
#100 = APPLICATION_CONTEXT ( 'configuration controlled 3d designs of mechanical parts and assemblies' ) ;
#101 = CARTESIAN_POINT ( 'NONE',  ( 0.000000000000000000, 38.00000000000000000, 0.000000000000000000 ) ) ;
#102 = APPROVAL_PERSON_ORGANIZATION ( #182, #17, #107 ) ;
#103 = CARTESIAN_POINT ( 'NONE',  ( -52.85000000000000142, 3.236129166746880944E-15, 0.000000000000000000 ) ) ;
#104 = PRODUCT_DEFINITION_SHAPE ( 'NONE', 'NONE',  #66 ) ;
#105 = APPROVAL_STATUS ( 'not_yet_approved' ) ;
#106 = CC_DESIGN_DATE_AND_TIME_ASSIGNMENT ( #163, #91, ( #66 ) ) ;
#107 = APPROVAL_ROLE ( '' ) ;
#108 = AXIS2_PLACEMENT_3D ( 'NONE', #208, #114, #132 ) ;
#109 = PERSON_AND_ORGANIZATION_ROLE ( 'classification_officer' ) ;
#110 = CALENDAR_DATE ( 2022, 24, 6 ) ;
#111 = ORIENTED_EDGE ( 'NONE', *, *, #239, .T. ) ;
#112 = PERSON_AND_ORGANIZATION ( #69, #28 ) ;
#113 = DIRECTION ( 'NONE',  ( -1.000000000000000000, 0.000000000000000000, 0.000000000000000000 ) ) ;
#114 = DIRECTION ( 'NONE',  ( 6.123233995736766036E-17, 1.000000000000000000, 0.000000000000000000 ) ) ;
#115 = FACE_OUTER_BOUND ( 'NONE', #1, .T. ) ;
#116 = UNCERTAINTY_MEASURE_WITH_UNIT (LENGTH_MEASURE( 1.000000000000000082E-05 ), #202, 'distance_accuracy_value', 'NONE');
#117 = PRODUCT_RELATED_PRODUCT_CATEGORY ( 'detail', '', ( #176 ) ) ;
#118 = CARTESIAN_POINT ( 'NONE',  ( 0.000000000000000000, 38.00000000000000000, 0.000000000000000000 ) ) ;
#119 = CIRCLE ( 'NONE', #67, 14.85000000000000142 ) ;
#120 = ORIENTED_EDGE ( 'NONE', *, *, #98, .T. ) ;
#121 = EDGE_CURVE ( 'NONE', #170, #48, #119, .T. ) ;
#122 = DIRECTION ( 'NONE',  ( 0.000000000000000000, 0.000000000000000000, -1.000000000000000000 ) ) ;
#123 = PRODUCT_DEFINITION_FORMATION_WITH_SPECIFIED_SOURCE ( 'LIBOVOLNÝ', '', #176, .NOT_KNOWN. ) ;
#124 = DIRECTION ( 'NONE',  ( 0.000000000000000000, 0.000000000000000000, 1.000000000000000000 ) ) ;
#125 = APPROVAL_ROLE ( '' ) ;
#126 = EDGE_CURVE ( 'NONE', #48, #170, #20, .T. ) ;
#127 = AXIS2_PLACEMENT_3D ( 'NONE', #101, #49, #2 ) ;
#128 = PERSON_AND_ORGANIZATION ( #69, #28 ) ;
#129 = TOROIDAL_SURFACE ( 'NONE', #22, 38.00000000000000000, 14.85000000000000142 ) ;
#130 = ORIENTED_EDGE ( 'NONE', *, *, #40, .F. ) ;
#131 = DATE_AND_TIME ( #245, #137 ) ;
#132 = DIRECTION ( 'NONE',  ( 0.000000000000000000, 0.000000000000000000, -1.000000000000000000 ) ) ;
#133 = ORIENTED_EDGE ( 'NONE', *, *, #184, .T. ) ;
#134 = APPROVAL ( #203, 'NEURÈENÝ' ) ;
#135 = CARTESIAN_POINT ( 'NONE',  ( -23.14999999999999858, 1.417528670013060996E-15, 1.818600496733819948E-15 ) ) ;
#136 = DIRECTION ( 'NONE',  ( -0.000000000000000000, -0.000000000000000000, -1.000000000000000000 ) ) ;
#137 = LOCAL_TIME ( 6, 56, 9.000000000000000000, #145 ) ;
#138 = CIRCLE ( 'NONE', #204, 16.85000000000000142 ) ;
#139 = ORIENTED_EDGE ( 'NONE', *, *, #95, .T. ) ;
#140 = DIRECTION ( 'NONE',  ( 0.000000000000000000, 0.000000000000000000, -1.000000000000000000 ) ) ;
#141 = DIRECTION ( 'NONE',  ( 0.000000000000000000, 0.000000000000000000, -1.000000000000000000 ) ) ;
#142 = CC_DESIGN_APPROVAL ( #17, ( #123 ) ) ;
#143 = SHAPE_DEFINITION_REPRESENTATION ( #104, #235 ) ;
#144 = APPLICATION_PROTOCOL_DEFINITION ( 'international standard', 'config_control_design', 1994, #100 ) ;
#145 = COORDINATED_UNIVERSAL_TIME_OFFSET ( 1, 0, .AHEAD. ) ;
#146 = ORIENTED_EDGE ( 'NONE', *, *, #229, .F. ) ;
#147 = FACE_BOUND ( 'NONE', #12, .T. ) ;
#148 = DIRECTION ( 'NONE',  ( -0.000000000000000000, -0.000000000000000000, -1.000000000000000000 ) ) ;
#149 = EDGE_CURVE ( 'NONE', #61, #211, #84, .T. ) ;
#150 = DESIGN_CONTEXT ( 'detailed design', #16, 'design' ) ;
#151 = AXIS2_PLACEMENT_3D ( 'NONE', #233, #172, #252 ) ;
#152 = DIRECTION ( 'NONE',  ( -1.000000000000000000, 0.000000000000000000, 0.000000000000000000 ) ) ;
#153 = AXIS2_PLACEMENT_3D ( 'NONE', #215, #3, #26 ) ;
#154 = PLANE ( 'NONE',  #151 ) ;
#155 = LOCAL_TIME ( 6, 56, 9.000000000000000000, #35 ) ;
#156 = CC_DESIGN_DATE_AND_TIME_ASSIGNMENT ( #6, #205, ( #65 ) ) ;
#157 = EDGE_LOOP ( 'NONE', ( #130, #68, #23, #120 ) ) ;
#158 = AXIS2_PLACEMENT_3D ( 'NONE', #70, #198, #141 ) ;
#159 = ORIENTED_EDGE ( 'NONE', *, *, #214, .F. ) ;
#160 = DIRECTION ( 'NONE',  ( -1.000000000000000000, 0.000000000000000000, 0.000000000000000000 ) ) ;
#161 = AXIS2_PLACEMENT_3D ( 'NONE', #171, #248, #15 ) ;
#162 = FACE_OUTER_BOUND ( 'NONE', #169, .T. ) ;
#163 = DATE_AND_TIME ( #166, #234 ) ;
#164 = CARTESIAN_POINT ( 'NONE',  ( 0.000000000000000000, 54.84999999999999432, 0.000000000000000000 ) ) ;
#165 = DATE_AND_TIME ( #110, #199 ) ;
#166 = CALENDAR_DATE ( 2022, 24, 6 ) ;
#167 = APPROVAL_PERSON_ORGANIZATION ( #128, #134, #32 ) ;
#168 = PERSON_AND_ORGANIZATION_ROLE ( 'design_supplier' ) ;
#169 = EDGE_LOOP ( 'NONE', ( #249, #38, #111, #146 ) ) ;
#170 = VERTEX_POINT ( 'NONE', #135 ) ;
#171 = CARTESIAN_POINT ( 'NONE',  ( 0.000000000000000000, 0.000000000000000000, 0.000000000000000000 ) ) ;
#172 = DIRECTION ( 'NONE',  ( 1.000000000000000000, 0.000000000000000000, 0.000000000000000000 ) ) ;
#173 = CIRCLE ( 'NONE', #94, 23.14999999999999858 ) ;
#174 = DIRECTION ( 'NONE',  ( -1.000000000000000000, 0.000000000000000000, 0.000000000000000000 ) ) ;
#175 = EDGE_CURVE ( 'NONE', #200, #247, #54, .T. ) ;
#176 = PRODUCT ( 'A_1305-233', 'A_1305-233', '', ( #4 ) ) ;
#177 = EDGE_LOOP ( 'NONE', ( #187, #99 ) ) ;
#178 = DIRECTION ( 'NONE',  ( 6.123233995736766036E-17, 1.000000000000000000, 0.000000000000000000 ) ) ;
#179 = APPROVAL_PERSON_ORGANIZATION ( #221, #46, #125 ) ;
#180 = CARTESIAN_POINT ( 'NONE',  ( -38.00000000000000000, 2.326828918379970970E-15, 0.000000000000000000 ) ) ;
#181 =( NAMED_UNIT ( * ) SI_UNIT ( $, .STERADIAN. ) SOLID_ANGLE_UNIT ( ) );
#182 = PERSON_AND_ORGANIZATION ( #69, #28 ) ;
#183 = TOROIDAL_SURFACE ( 'NONE', #251, 38.00000000000000000, 16.85000000000000142 ) ;
#184 = EDGE_CURVE ( 'NONE', #200, #61, #44, .T. ) ;
#185 = COORDINATED_UNIVERSAL_TIME_OFFSET ( 1, 0, .AHEAD. ) ;
#186 = CC_DESIGN_PERSON_AND_ORGANIZATION_ASSIGNMENT ( #89, #57, ( #66 ) ) ;
#187 = ORIENTED_EDGE ( 'NONE', *, *, #98, .F. ) ;
#188 = CALENDAR_DATE ( 2022, 24, 6 ) ;
#189 = CARTESIAN_POINT ( 'NONE',  ( 0.000000000000000000, 52.85000000000000142, 0.000000000000000000 ) ) ;
#190 = FACE_OUTER_BOUND ( 'NONE', #76, .T. ) ;
#191 = CARTESIAN_POINT ( 'NONE',  ( -54.84999999999999432, 3.358593846661615698E-15, 0.000000000000000000 ) ) ;
#192 = DIRECTION ( 'NONE',  ( 0.000000000000000000, 0.000000000000000000, -1.000000000000000000 ) ) ;
#193 = AXIS2_PLACEMENT_3D ( 'NONE', #241, #216, #140 ) ;
#194 = ADVANCED_FACE ( 'NONE', ( #253, #115 ), #154, .T. ) ;
#195 = AXIS2_PLACEMENT_3D ( 'NONE', #86, #85, #160 ) ;
#196 = CC_DESIGN_PERSON_AND_ORGANIZATION_ASSIGNMENT ( #112, #109, ( #65 ) ) ;
#197 = ORIENTED_EDGE ( 'NONE', *, *, #81, .F. ) ;
#198 = DIRECTION ( 'NONE',  ( 6.123233995736766036E-17, 1.000000000000000000, 0.000000000000000000 ) ) ;
#199 = LOCAL_TIME ( 6, 56, 9.000000000000000000, #31 ) ;
#200 = VERTEX_POINT ( 'NONE', #191 ) ;
#201 = CARTESIAN_POINT ( 'NONE',  ( -21.14999999999999858, 1.295063990098325848E-15, 2.063529856563290244E-15 ) ) ;
#202 =( LENGTH_UNIT ( ) NAMED_UNIT ( * ) SI_UNIT ( .MILLI., .METRE. ) );
#203 = APPROVAL_STATUS ( 'not_yet_approved' ) ;
#204 = AXIS2_PLACEMENT_3D ( 'NONE', #118, #63, #192 ) ;
#205 = DATE_TIME_ROLE ( 'classification_date' ) ;
#206 = ORIENTED_EDGE ( 'NONE', *, *, #214, .T. ) ;
#207 = PERSON_AND_ORGANIZATION_ROLE ( 'design_owner' ) ;
#208 = CARTESIAN_POINT ( 'NONE',  ( -38.00000000000000000, 2.326828918379970970E-15, 0.000000000000000000 ) ) ;
#209 = CARTESIAN_POINT ( 'NONE',  ( 0.000000000000000000, 0.000000000000000000, 0.000000000000000000 ) ) ;
#210 = CIRCLE ( 'NONE', #127, 16.85000000000000142 ) ;
#211 = VERTEX_POINT ( 'NONE', #64 ) ;
#212 = AXIS2_PLACEMENT_3D ( 'NONE', #77, #148, #50 ) ;
#213 = ORIENTED_EDGE ( 'NONE', *, *, #184, .F. ) ;
#214 = EDGE_CURVE ( 'NONE', #247, #211, #138, .T. ) ;
#215 = CARTESIAN_POINT ( 'NONE',  ( 0.000000000000000000, 0.000000000000000000, 0.000000000000000000 ) ) ;
#216 = DIRECTION ( 'NONE',  ( 1.000000000000000000, 0.000000000000000000, 0.000000000000000000 ) ) ;
#217 = DIRECTION ( 'NONE',  ( 1.000000000000000000, 0.000000000000000000, 0.000000000000000000 ) ) ;
#218 = CC_DESIGN_SECURITY_CLASSIFICATION ( #65, ( #123 ) ) ;
#219 =( NAMED_UNIT ( * ) PLANE_ANGLE_UNIT ( ) SI_UNIT ( $, .RADIAN. ) );
#220 = CC_DESIGN_PERSON_AND_ORGANIZATION_ASSIGNMENT ( #224, #73, ( #123 ) ) ;
#221 = PERSON_AND_ORGANIZATION ( #69, #28 ) ;
#222 = DIRECTION ( 'NONE',  ( 0.000000000000000000, 0.000000000000000000, -1.000000000000000000 ) ) ;
#223 = APPLICATION_PROTOCOL_DEFINITION ( 'international standard', 'config_control_design', 1994, #16 ) ;
#224 = PERSON_AND_ORGANIZATION ( #69, #28 ) ;
#225 = ORIENTED_EDGE ( 'NONE', *, *, #126, .T. ) ;
#226 = FACE_OUTER_BOUND ( 'NONE', #240, .T. ) ;
#227 = FACE_OUTER_BOUND ( 'NONE', #157, .T. ) ;
#228 = AXIS2_PLACEMENT_3D ( 'NONE', #93, #21, #41 ) ;
#229 = EDGE_CURVE ( 'NONE', #170, #92, #173, .T. ) ;
#230 = DIRECTION ( 'NONE',  ( -1.000000000000000000, 0.000000000000000000, 0.000000000000000000 ) ) ;
#231 = TOROIDAL_SURFACE ( 'NONE', #153, 38.00000000000000000, 14.85000000000000142 ) ;
#232 = CC_DESIGN_PERSON_AND_ORGANIZATION_ASSIGNMENT ( #60, #207, ( #176 ) ) ;
#233 = CARTESIAN_POINT ( 'NONE',  ( 0.000000000000000000, 38.00000000000000000, 0.000000000000000000 ) ) ;
#234 = LOCAL_TIME ( 6, 56, 9.000000000000000000, #185 ) ;
#235 = ADVANCED_BREP_SHAPE_REPRESENTATION ( 'A_1305-233', ( #88, #51 ), #74 ) ;
#236 = ADVANCED_FACE ( 'NONE', ( #82 ), #183, .T. ) ;
#237 = EDGE_LOOP ( 'NONE', ( #45, #133, #53, #159 ) ) ;
#238 = CIRCLE ( 'NONE', #78, 14.85000000000000142 ) ;
#239 = EDGE_CURVE ( 'NONE', #27, #92, #238, .T. ) ;
#240 = EDGE_LOOP ( 'NONE', ( #197, #213 ) ) ;
#241 = CARTESIAN_POINT ( 'NONE',  ( 0.000000000000000000, 38.00000000000000000, 0.000000000000000000 ) ) ;
#242 = DIRECTION ( 'NONE',  ( 6.123233995736766036E-17, 1.000000000000000000, 0.000000000000000000 ) ) ;
#243 = CC_DESIGN_PERSON_AND_ORGANIZATION_ASSIGNMENT ( #55, #168, ( #123 ) ) ;
#244 = APPROVAL_DATE_TIME ( #131, #134 ) ;
#245 = CALENDAR_DATE ( 2022, 24, 6 ) ;
#246 = COORDINATED_UNIVERSAL_TIME_OFFSET ( 1, 0, .AHEAD. ) ;
#247 = VERTEX_POINT ( 'NONE', #164 ) ;
#248 = DIRECTION ( 'NONE',  ( -0.000000000000000000, -0.000000000000000000, -1.000000000000000000 ) ) ;
#249 = ORIENTED_EDGE ( 'NONE', *, *, #126, .F. ) ;
#250 = PLANE ( 'NONE',  #108 ) ;
#251 = AXIS2_PLACEMENT_3D ( 'NONE', #39, #19, #152 ) ;
#252 = DIRECTION ( 'NONE',  ( 0.000000000000000000, 0.000000000000000000, -1.000000000000000000 ) ) ;
#253 = FACE_BOUND ( 'NONE', #177, .T. ) ;
ENDSEC;
END-ISO-10303-21;
