ISO-10303-21;
HEADER;
FILE_DESCRIPTION (( 'STEP AP203' ),
    '1' );
FILE_NAME ('A_0220-015.STEP',
    '2019-03-16T11:01:55',
    ( '' ),
    ( '' ),
    'SwSTEP 2.0',
    'SolidWorks 2013',
    '' );
FILE_SCHEMA (( 'CONFIG_CONTROL_DESIGN' ));
ENDSEC;

DATA;
#1 = CIRCLE ( 'NONE', #76, 2.499999999999996400 ) ;
#2 = VERTEX_POINT ( 'NONE', #134 ) ;
#3 = CARTESIAN_POINT ( 'NONE',  ( -7.490000000000000200, -9.172604525613678100E-016, 0.0000000000000000000 ) ) ;
#4 = CARTESIAN_POINT ( 'NONE',  ( -14.99000000000000000, -1.376503002241625200E-015, 0.0000000000000000000 ) ) ;
#5 = VERTEX_POINT ( 'NONE', #4 ) ;
#6 = PRODUCT_RELATED_PRODUCT_CATEGORY ( 'detail', '', ( #182 ) ) ;
#7 = FACE_OUTER_BOUND ( 'NONE', #179, .T. ) ;
#8 = ORIENTED_EDGE ( 'NONE', *, *, #129, .T. ) ;
#9 = ORIENTED_EDGE ( 'NONE', *, *, #181, .F. ) ;
#10 = ADVANCED_FACE ( 'NONE', ( #154 ), #78, .F. ) ;
#11 = DATE_AND_TIME ( #138, #89 ) ;
#12 = FACE_OUTER_BOUND ( 'NONE', #47, .T. ) ;
#13 = APPROVAL_ROLE ( '' ) ;
#14 = APPLICATION_PROTOCOL_DEFINITION ( 'international standard', 'config_control_design', 1994, #204 ) ;
#15 = CC_DESIGN_PERSON_AND_ORGANIZATION_ASSIGNMENT ( #172, #208, ( #42 ) ) ;
#16 = CARTESIAN_POINT ( 'NONE',  ( -12.00000000000000000, 0.0000000000000000000, 0.0000000000000000000 ) ) ;
#17 = EDGE_CURVE ( 'NONE', #131, #72, #176, .T. ) ;
#18 = COORDINATED_UNIVERSAL_TIME_OFFSET ( 1, 0, .AHEAD. ) ;
#19 = CYLINDRICAL_SURFACE ( 'NONE', #123, 2.499999999999993300 ) ;
#20 = DESIGN_CONTEXT ( 'detailed design', #103, 'design' ) ;
#21 = DIRECTION ( 'NONE',  ( 0.0000000000000000000, 0.0000000000000000000, -1.000000000000000000 ) ) ;
#22 = CC_DESIGN_PERSON_AND_ORGANIZATION_ASSIGNMENT ( #243, #83, ( #182 ) ) ;
#23 = EDGE_LOOP ( 'NONE', ( #94, #196, #233 ) ) ;
#24 = APPROVAL_PERSON_ORGANIZATION ( #30, #189, #70 ) ;
#25 = PRODUCT_DEFINITION_SHAPE ( 'NONE', 'NONE',  #33 ) ;
#26 = CC_DESIGN_APPROVAL ( #194, ( #234 ) ) ;
#27 = EDGE_LOOP ( 'NONE', ( #227, #184, #81, #93 ) ) ;
#28 = EDGE_CURVE ( 'NONE', #112, #77, #144, .T. ) ;
#29 = ADVANCED_FACE ( 'NONE', ( #36 ), #19, .F. ) ;
#30 = PERSON_AND_ORGANIZATION ( #155, #158 ) ;
#31 = DIRECTION ( 'NONE',  ( 0.0000000000000000000, -8.881784197001252300E-016, 1.000000000000000000 ) ) ;
#32 = PERSON_AND_ORGANIZATION_ROLE ( 'creator' ) ;
#33 = PRODUCT_DEFINITION ( 'NEZNÁMÝ', '', #42, #20 ) ;
#34 = CARTESIAN_POINT ( 'NONE',  ( -12.00000000000000000, 0.0000000000000000000, -2.499999999999996400 ) ) ;
#35 = COORDINATED_UNIVERSAL_TIME_OFFSET ( 1, 0, .AHEAD. ) ;
#36 = FACE_OUTER_BOUND ( 'NONE', #192, .T. ) ;
#37 = DIRECTION ( 'NONE',  ( 1.000000000000000000, -0.0000000000000000000, -0.0000000000000000000 ) ) ;
#38 = EDGE_CURVE ( 'NONE', #72, #63, #1, .T. ) ;
#39 = ORIENTED_EDGE ( 'NONE', *, *, #220, .T. ) ;
#40 = CARTESIAN_POINT ( 'NONE',  ( 0.0000000000000000000, 0.0000000000000000000, 0.0000000000000000000 ) ) ;
#41 = PERSON_AND_ORGANIZATION ( #155, #158 ) ;
#42 = PRODUCT_DEFINITION_FORMATION_WITH_SPECIFIED_SOURCE ( 'LIBOVOLNÝ', '', #182, .NOT_KNOWN. ) ;
#43 = VERTEX_POINT ( 'NONE', #98 ) ;
#44 = AXIS2_PLACEMENT_3D ( 'NONE', #80, #219, #31 ) ;
#45 = CIRCLE ( 'NONE', #140, 7.500000000000000000 ) ;
#46 = CARTESIAN_POINT ( 'NONE',  ( -12.00000000000000000, 3.061616997868378700E-016, 2.499999999999996400 ) ) ;
#47 = EDGE_LOOP ( 'NONE', ( #198, #58, #216, #210 ) ) ;
#48 = CARTESIAN_POINT ( 'NONE',  ( -0.4189321881345230400, 3.061616997868375300E-016, 2.499999999999993300 ) ) ;
#49 = CARTESIAN_POINT ( 'NONE',  ( -12.00000000000000000, 0.0000000000000000000, 0.0000000000000000000 ) ) ;
#50 = DIRECTION ( 'NONE',  ( 1.000000000000000000, -0.0000000000000000000, -0.0000000000000000000 ) ) ;
#51 = EDGE_CURVE ( 'NONE', #2, #43, #143, .T. ) ;
#52 = CARTESIAN_POINT ( 'NONE',  ( 0.0000000000000000000, 0.0000000000000000000, 0.0000000000000000000 ) ) ;
#53 = COORDINATED_UNIVERSAL_TIME_OFFSET ( 1, 0, .AHEAD. ) ;
#54 = DIRECTION ( 'NONE',  ( -0.0000000000000000000, 0.0000000000000000000, -1.000000000000000000 ) ) ;
#55 = PERSON_AND_ORGANIZATION_ROLE ( 'creator' ) ;
#56 = DIRECTION ( 'NONE',  ( 0.0000000000000000000, 0.0000000000000000000, 1.000000000000000000 ) ) ;
#57 = EDGE_CURVE ( 'NONE', #77, #2, #236, .T. ) ;
#58 = ORIENTED_EDGE ( 'NONE', *, *, #106, .T. ) ;
#59 = DIRECTION ( 'NONE',  ( 0.5150380749100550400, 0.0000000000000000000, -0.8571673007021117800 ) ) ;
#60 = ORIENTED_EDGE ( 'NONE', *, *, #57, .T. ) ;
#61 = APPROVAL_ROLE ( '' ) ;
#62 = APPROVAL ( #124, 'NEURÈENÝ' ) ;
#63 = VERTEX_POINT ( 'NONE', #68 ) ;
#64 = PERSON_AND_ORGANIZATION ( #155, #158 ) ;
#65 = CARTESIAN_POINT ( 'NONE',  ( 0.0000000000000000000, 0.0000000000000000000, 0.0000000000000000000 ) ) ;
#66 = VECTOR ( 'NONE', #180, 1000.000000000000000 ) ;
#67 = DIRECTION ( 'NONE',  ( 1.000000000000000000, -0.0000000000000000000, -0.0000000000000000000 ) ) ;
#68 = CARTESIAN_POINT ( 'NONE',  ( -12.00000000000000000, 0.0000000000000000000, -2.499999999999996400 ) ) ;
#69 = CARTESIAN_POINT ( 'NONE',  ( -12.00000000000000000, 3.061616997868378700E-016, 2.499999999999996400 ) ) ;
#70 = APPROVAL_ROLE ( '' ) ;
#71 = DIRECTION ( 'NONE',  ( 0.0000000000000000000, 0.0000000000000000000, 1.000000000000000000 ) ) ;
#72 = VERTEX_POINT ( 'NONE', #69 ) ;
#73 = AXIS2_PLACEMENT_3D ( 'NONE', #175, #231, #110 ) ;
#74 = CALENDAR_DATE ( 2019, 16, 3 ) ;
#75 = ORIENTED_EDGE ( 'NONE', *, *, #38, .F. ) ;
#76 = AXIS2_PLACEMENT_3D ( 'NONE', #49, #96, #238 ) ;
#77 = VERTEX_POINT ( 'NONE', #48 ) ;
#78 = CONICAL_SURFACE ( 'NONE', #73, 2.499999999999996400, 1.029744258676653400 ) ;
#79 = CC_DESIGN_DATE_AND_TIME_ASSIGNMENT ( #165, #188, ( #33 ) ) ;
#80 = CARTESIAN_POINT ( 'NONE',  ( -0.4189321881345230400, 0.0000000000000000000, 0.0000000000000000000 ) ) ;
#81 = ORIENTED_EDGE ( 'NONE', *, *, #57, .F. ) ;
#82 = CARTESIAN_POINT ( 'NONE',  ( -0.4189321881345230400, 0.0000000000000000000, 0.0000000000000000000 ) ) ;
#83 = PERSON_AND_ORGANIZATION_ROLE ( 'design_owner' ) ;
#84 = APPROVAL_DATE_TIME ( #11, #189 ) ;
#85 = SPHERICAL_SURFACE ( 'NONE', #185, 7.500000000000000000 ) ;
#86 = MANIFOLD_SOLID_BREP ( 'M6 závit1', #150 ) ;
#87 = DIRECTION ( 'NONE',  ( 1.000000000000000000, -0.0000000000000000000, -0.0000000000000000000 ) ) ;
#88 = FACE_OUTER_BOUND ( 'NONE', #161, .T. ) ;
#89 = LOCAL_TIME ( 12, 1, 55.00000000000000000, #212 ) ;
#90 = ADVANCED_FACE ( 'NONE', ( #239 ), #85, .T. ) ;
#91 = CC_DESIGN_APPROVAL ( #62, ( #33 ) ) ;
#92 = ADVANCED_BREP_SHAPE_REPRESENTATION ( 'A_0220-015', ( #86, #242 ), #141 ) ;
#93 = ORIENTED_EDGE ( 'NONE', *, *, #28, .F. ) ;
#94 = ORIENTED_EDGE ( 'NONE', *, *, #17, .F. ) ;
#95 = CALENDAR_DATE ( 2019, 16, 3 ) ;
#96 = DIRECTION ( 'NONE',  ( 1.000000000000000000, -0.0000000000000000000, -0.0000000000000000000 ) ) ;
#97 = ADVANCED_FACE ( 'NONE', ( #88 ), #217, .F. ) ;
#98 = CARTESIAN_POINT ( 'NONE',  ( -0.4189321881345230400, 0.0000000000000000000, -2.499999999999993300 ) ) ;
#99 = APPROVAL_DATE_TIME ( #130, #194 ) ;
#100 = DIRECTION ( 'NONE',  ( -1.499759782661857600E-032, 1.224646799147353200E-016, 1.000000000000000000 ) ) ;
#101 = VECTOR ( 'NONE', #87, 1000.000000000000000 ) ;
#102 = ADVANCED_FACE ( 'NONE', ( #12 ), #128, .T. ) ;
#103 = APPLICATION_CONTEXT ( 'configuration controlled 3d designs of mechanical parts and assemblies' ) ;
#104 = EDGE_CURVE ( 'NONE', #5, #2, #45, .T. ) ;
#105 = CARTESIAN_POINT ( 'NONE',  ( -0.4189321881345234900, 2.499999999999993800, 0.0000000000000000000 ) ) ;
#106 = EDGE_CURVE ( 'NONE', #5, #112, #107, .T. ) ;
#107 = CIRCLE ( 'NONE', #164, 7.500000000000000000 ) ;
#108 = AXIS2_PLACEMENT_3D ( 'NONE', #16, #148, #21 ) ;
#109 = DIRECTION ( 'NONE',  ( -1.000000000000000000, 0.0000000000000000000, 0.0000000000000000000 ) ) ;
#110 = DIRECTION ( 'NONE',  ( 0.0000000000000000000, 0.0000000000000000000, -1.000000000000000000 ) ) ;
#111 = SHAPE_DEFINITION_REPRESENTATION ( #25, #92 ) ;
#112 = VERTEX_POINT ( 'NONE', #105 ) ;
#113 = AXIS2_PLACEMENT_3D ( 'NONE', #218, #50, #240 ) ;
#114 = COORDINATED_UNIVERSAL_TIME_OFFSET ( 1, 0, .AHEAD. ) ;
#115 = ORIENTED_EDGE ( 'NONE', *, *, #28, .T. ) ;
#116 = CALENDAR_DATE ( 2019, 16, 3 ) ;
#117 = DIRECTION ( 'NONE',  ( 0.0000000000000000000, 0.0000000000000000000, -1.000000000000000000 ) ) ;
#118 = CC_DESIGN_APPROVAL ( #189, ( #42 ) ) ;
#119 = UNCERTAINTY_MEASURE_WITH_UNIT (LENGTH_MEASURE( 1.000000000000000100E-005 ), #133, 'distance_accuracy_value', 'NONE');
#120 = CARTESIAN_POINT ( 'NONE',  ( -12.00000000000000000, 0.0000000000000000000, 0.0000000000000000000 ) ) ;
#121 = AXIS2_PLACEMENT_3D ( 'NONE', #120, #200, #117 ) ;
#122 = DIRECTION ( 'NONE',  ( 0.0000000000000000000, 0.0000000000000000000, 1.000000000000000000 ) ) ;
#123 = AXIS2_PLACEMENT_3D ( 'NONE', #65, #67, #163 ) ;
#124 = APPROVAL_STATUS ( 'not_yet_approved' ) ;
#125 = DIRECTION ( 'NONE',  ( 1.000000000000000000, 0.0000000000000000000, 0.0000000000000000000 ) ) ;
#126 = PERSON_AND_ORGANIZATION ( #155, #158 ) ;
#127 = CARTESIAN_POINT ( 'NONE',  ( -7.490000000000000200, -9.172604525613678100E-016, 0.0000000000000000000 ) ) ;
#128 = SPHERICAL_SURFACE ( 'NONE', #151, 7.500000000000000000 ) ;
#129 = EDGE_CURVE ( 'NONE', #72, #77, #213, .T. ) ;
#130 = DATE_AND_TIME ( #74, #229 ) ;
#131 = VERTEX_POINT ( 'NONE', #166 ) ;
#132 = MECHANICAL_CONTEXT ( 'NONE', #204, 'mechanical' ) ;
#133 =( LENGTH_UNIT ( ) NAMED_UNIT ( * ) SI_UNIT ( .MILLI., .METRE. ) );
#134 = CARTESIAN_POINT ( 'NONE',  ( -0.4189321881345234900, -2.499999999999994700, 3.061616997868376200E-016 ) ) ;
#135 = APPROVAL_PERSON_ORGANIZATION ( #126, #194, #61 ) ;
#136 = CIRCLE ( 'NONE', #108, 2.499999999999996400 ) ;
#137 = CC_DESIGN_PERSON_AND_ORGANIZATION_ASSIGNMENT ( #226, #197, ( #234 ) ) ;
#138 = CALENDAR_DATE ( 2019, 16, 3 ) ;
#139 = ORIENTED_EDGE ( 'NONE', *, *, #211, .T. ) ;
#140 = AXIS2_PLACEMENT_3D ( 'NONE', #3, #100, #222 ) ;
#141 =( GEOMETRIC_REPRESENTATION_CONTEXT ( 3 ) GLOBAL_UNCERTAINTY_ASSIGNED_CONTEXT ( ( #119 ) ) GLOBAL_UNIT_ASSIGNED_CONTEXT ( ( #133, #187, #146 ) ) REPRESENTATION_CONTEXT ( 'NONE', 'WORKASPACE' ) );
#142 = APPROVAL_PERSON_ORGANIZATION ( #205, #62, #13 ) ;
#143 = CIRCLE ( 'NONE', #160, 2.499999999999993300 ) ;
#144 = CIRCLE ( 'NONE', #44, 2.499999999999993300 ) ;
#145 = DIRECTION ( 'NONE',  ( -1.156482317317871500E-016, 1.000000000000000000, 0.0000000000000000000 ) ) ;
#146 =( NAMED_UNIT ( * ) SI_UNIT ( $, .STERADIAN. ) SOLID_ANGLE_UNIT ( ) );
#147 = APPROVAL_STATUS ( 'not_yet_approved' ) ;
#148 = DIRECTION ( 'NONE',  ( 1.000000000000000000, -0.0000000000000000000, -0.0000000000000000000 ) ) ;
#149 = ORIENTED_EDGE ( 'NONE', *, *, #129, .F. ) ;
#150 = CLOSED_SHELL ( 'NONE', ( #207, #97, #90, #102, #10, #29 ) ) ;
#151 = AXIS2_PLACEMENT_3D ( 'NONE', #191, #168, #170 ) ;
#152 = DIRECTION ( 'NONE',  ( 0.0000000000000000000, 0.0000000000000000000, -1.000000000000000000 ) ) ;
#153 = AXIS2_PLACEMENT_3D ( 'NONE', #40, #169, #152 ) ;
#154 = FACE_OUTER_BOUND ( 'NONE', #23, .T. ) ;
#155 = PERSON ( 'NEURÈENÝ', 'NEURÈENÝ', 'NEURÈENÝ', ('NEURÈENÝ'), ('NEURÈENÝ'), ('NEURÈENÝ') ) ;
#156 = ORIENTED_EDGE ( 'NONE', *, *, #17, .T. ) ;
#157 = DATE_TIME_ROLE ( 'classification_date' ) ;
#158 = ORGANIZATION ( 'NEURÈENÝ', 'NEURÈENÝ', '' ) ;
#159 = LINE ( 'NONE', #34, #230 ) ;
#160 = AXIS2_PLACEMENT_3D ( 'NONE', #82, #237, #221 ) ;
#161 = EDGE_LOOP ( 'NONE', ( #9, #156, #245 ) ) ;
#162 = CARTESIAN_POINT ( 'NONE',  ( -7.490000000000000200, -9.172604525613678100E-016, 0.0000000000000000000 ) ) ;
#163 = DIRECTION ( 'NONE',  ( 0.0000000000000000000, 0.0000000000000000000, -1.000000000000000000 ) ) ;
#164 = AXIS2_PLACEMENT_3D ( 'NONE', #127, #54, #109 ) ;
#165 = DATE_AND_TIME ( #190, #186 ) ;
#166 = CARTESIAN_POINT ( 'NONE',  ( -13.50215154756890000, -3.307073334866546900E-015, 0.0000000000000000000 ) ) ;
#167 = LINE ( 'NONE', #209, #206 ) ;
#168 = DIRECTION ( 'NONE',  ( 0.0000000000000000000, 0.0000000000000000000, 1.000000000000000000 ) ) ;
#169 = DIRECTION ( 'NONE',  ( 1.000000000000000000, -0.0000000000000000000, -0.0000000000000000000 ) ) ;
#170 = DIRECTION ( 'NONE',  ( -1.156482317317871500E-016, 1.000000000000000000, 0.0000000000000000000 ) ) ;
#171 = CYLINDRICAL_SURFACE ( 'NONE', #153, 2.499999999999993300 ) ;
#172 = PERSON_AND_ORGANIZATION ( #155, #158 ) ;
#173 = ORIENTED_EDGE ( 'NONE', *, *, #51, .T. ) ;
#174 = CARTESIAN_POINT ( 'NONE',  ( 0.0000000000000000000, 3.061616997868375300E-016, 2.499999999999993300 ) ) ;
#175 = CARTESIAN_POINT ( 'NONE',  ( -12.00000000000000000, 0.0000000000000000000, 0.0000000000000000000 ) ) ;
#176 = LINE ( 'NONE', #46, #66 ) ;
#177 = CC_DESIGN_DATE_AND_TIME_ASSIGNMENT ( #183, #157, ( #234 ) ) ;
#178 = EDGE_CURVE ( 'NONE', #63, #72, #136, .T. ) ;
#179 = EDGE_LOOP ( 'NONE', ( #75, #8, #60, #173, #202 ) ) ;
#180 = DIRECTION ( 'NONE',  ( 0.5150380749100550400, 1.049727191138618000E-016, 0.8571673007021117800 ) ) ;
#181 = EDGE_CURVE ( 'NONE', #131, #63, #159, .T. ) ;
#182 = PRODUCT ( 'A_0220-015', 'A_0220-015', '', ( #132 ) ) ;
#183 = DATE_AND_TIME ( #116, #235 ) ;
#184 = ORIENTED_EDGE ( 'NONE', *, *, #104, .T. ) ;
#185 = AXIS2_PLACEMENT_3D ( 'NONE', #162, #122, #145 ) ;
#186 = LOCAL_TIME ( 12, 1, 55.00000000000000000, #53 ) ;
#187 =( NAMED_UNIT ( * ) PLANE_ANGLE_UNIT ( ) SI_UNIT ( $, .RADIAN. ) );
#188 = DATE_TIME_ROLE ( 'creation_date' ) ;
#189 = APPROVAL ( #147, 'NEURÈENÝ' ) ;
#190 = CALENDAR_DATE ( 2019, 16, 3 ) ;
#191 = CARTESIAN_POINT ( 'NONE',  ( -7.490000000000000200, -9.172604525613678100E-016, 0.0000000000000000000 ) ) ;
#192 = EDGE_LOOP ( 'NONE', ( #149, #225, #39, #139, #115 ) ) ;
#193 = AXIS2_PLACEMENT_3D ( 'NONE', #223, #37, #71 ) ;
#194 = APPROVAL ( #232, 'NEURÈENÝ' ) ;
#195 = DATE_AND_TIME ( #95, #199 ) ;
#196 = ORIENTED_EDGE ( 'NONE', *, *, #181, .T. ) ;
#197 = PERSON_AND_ORGANIZATION_ROLE ( 'classification_officer' ) ;
#198 = ORIENTED_EDGE ( 'NONE', *, *, #104, .F. ) ;
#199 = LOCAL_TIME ( 12, 1, 55.00000000000000000, #114 ) ;
#200 = DIRECTION ( 'NONE',  ( 1.000000000000000000, -0.0000000000000000000, -0.0000000000000000000 ) ) ;
#201 = CC_DESIGN_PERSON_AND_ORGANIZATION_ASSIGNMENT ( #64, #32, ( #33 ) ) ;
#202 = ORIENTED_EDGE ( 'NONE', *, *, #220, .F. ) ;
#203 = CC_DESIGN_SECURITY_CLASSIFICATION ( #234, ( #42 ) ) ;
#204 = APPLICATION_CONTEXT ( 'configuration controlled 3d designs of mechanical parts and assemblies' ) ;
#205 = PERSON_AND_ORGANIZATION ( #155, #158 ) ;
#206 = VECTOR ( 'NONE', #228, 1000.000000000000000 ) ;
#207 = ADVANCED_FACE ( 'NONE', ( #7 ), #171, .F. ) ;
#208 = PERSON_AND_ORGANIZATION_ROLE ( 'design_supplier' ) ;
#209 = CARTESIAN_POINT ( 'NONE',  ( 0.0000000000000000000, 0.0000000000000000000, -2.499999999999993300 ) ) ;
#210 = ORIENTED_EDGE ( 'NONE', *, *, #51, .F. ) ;
#211 = EDGE_CURVE ( 'NONE', #43, #112, #214, .T. ) ;
#212 = COORDINATED_UNIVERSAL_TIME_OFFSET ( 1, 0, .AHEAD. ) ;
#213 = LINE ( 'NONE', #174, #101 ) ;
#214 = CIRCLE ( 'NONE', #193, 2.499999999999993300 ) ;
#215 = APPROVAL_DATE_TIME ( #195, #62 ) ;
#216 = ORIENTED_EDGE ( 'NONE', *, *, #211, .F. ) ;
#217 = CONICAL_SURFACE ( 'NONE', #121, 2.499999999999996400, 1.029744258676653400 ) ;
#218 = CARTESIAN_POINT ( 'NONE',  ( -0.4189321881345230400, 0.0000000000000000000, 0.0000000000000000000 ) ) ;
#219 = DIRECTION ( 'NONE',  ( 1.000000000000000000, -0.0000000000000000000, -0.0000000000000000000 ) ) ;
#220 = EDGE_CURVE ( 'NONE', #63, #43, #167, .T. ) ;
#221 = DIRECTION ( 'NONE',  ( 0.0000000000000000000, 0.0000000000000000000, 1.000000000000000000 ) ) ;
#222 = DIRECTION ( 'NONE',  ( 0.0000000000000000000, -1.000000000000000000, 1.224646799147353000E-016 ) ) ;
#223 = CARTESIAN_POINT ( 'NONE',  ( -0.4189321881345230400, 0.0000000000000000000, 0.0000000000000000000 ) ) ;
#224 = CC_DESIGN_PERSON_AND_ORGANIZATION_ASSIGNMENT ( #41, #55, ( #42 ) ) ;
#225 = ORIENTED_EDGE ( 'NONE', *, *, #178, .F. ) ;
#226 = PERSON_AND_ORGANIZATION ( #155, #158 ) ;
#227 = ORIENTED_EDGE ( 'NONE', *, *, #106, .F. ) ;
#228 = DIRECTION ( 'NONE',  ( 1.000000000000000000, -0.0000000000000000000, -0.0000000000000000000 ) ) ;
#229 = LOCAL_TIME ( 12, 1, 55.00000000000000000, #35 ) ;
#230 = VECTOR ( 'NONE', #59, 1000.000000000000000 ) ;
#231 = DIRECTION ( 'NONE',  ( 1.000000000000000000, -0.0000000000000000000, -0.0000000000000000000 ) ) ;
#232 = APPROVAL_STATUS ( 'not_yet_approved' ) ;
#233 = ORIENTED_EDGE ( 'NONE', *, *, #178, .T. ) ;
#234 = SECURITY_CLASSIFICATION ( '', '', #244 ) ;
#235 = LOCAL_TIME ( 12, 1, 55.00000000000000000, #18 ) ;
#236 = CIRCLE ( 'NONE', #113, 2.499999999999993300 ) ;
#237 = DIRECTION ( 'NONE',  ( 1.000000000000000000, -0.0000000000000000000, -0.0000000000000000000 ) ) ;
#238 = DIRECTION ( 'NONE',  ( 0.0000000000000000000, 0.0000000000000000000, -1.000000000000000000 ) ) ;
#239 = FACE_OUTER_BOUND ( 'NONE', #27, .T. ) ;
#240 = DIRECTION ( 'NONE',  ( 0.0000000000000000000, 0.0000000000000000000, 1.000000000000000000 ) ) ;
#241 = APPLICATION_PROTOCOL_DEFINITION ( 'international standard', 'config_control_design', 1994, #103 ) ;
#242 = AXIS2_PLACEMENT_3D ( 'NONE', #52, #56, #125 ) ;
#243 = PERSON_AND_ORGANIZATION ( #155, #158 ) ;
#244 = SECURITY_CLASSIFICATION_LEVEL ( 'unclassified' ) ;
#245 = ORIENTED_EDGE ( 'NONE', *, *, #38, .T. ) ;
ENDSEC;
END-ISO-10303-21;
