ISO-10303-21;
HEADER;
FILE_DESCRIPTION (( 'STEP AP203' ),
    '1' );
FILE_NAME ('A9_33.STEP',
    '2022-11-11T08:27:54',
    ( '' ),
    ( '' ),
    'SwSTEP 2.0',
    'SolidWorks 2019',
    '' );
FILE_SCHEMA (( 'CONFIG_CONTROL_DESIGN' ));
ENDSEC;

DATA;
#1 = ORIENTED_EDGE ( 'NONE', *, *, #14, .F. ) ;
#2 = ADVANCED_FACE ( 'NONE', ( #255 ), #223, .F. ) ;
#3 = ORIENTED_EDGE ( 'NONE', *, *, #154, .T. ) ;
#4 = PRODUCT_DEFINITION ( 'NEZNÁMÝ', '', #119, #25 ) ;
#5 = ORIENTED_EDGE ( 'NONE', *, *, #155, .F. ) ;
#6 = DIRECTION ( 'NONE',  ( 0.000000000000000000, 1.000000000000000000, 0.000000000000000000 ) ) ;
#7 = CARTESIAN_POINT ( 'NONE',  ( 0.000000000000000000, 10.18072927306262798, 0.000000000000000000 ) ) ;
#8 = LOCAL_TIME ( 9, 27, 54.00000000000000000, #41 ) ;
#9 = CARTESIAN_POINT ( 'NONE',  ( 0.000000000000000000, 10.18072927306262798, 0.000000000000000000 ) ) ;
#10 = DIRECTION ( 'NONE',  ( 0.000000000000000000, 0.000000000000000000, 1.000000000000000000 ) ) ;
#11 = CIRCLE ( 'NONE', #53, 17.05000000000000071 ) ;
#12 = COORDINATED_UNIVERSAL_TIME_OFFSET ( 1, 0, .AHEAD. ) ;
#13 = APPROVAL_ROLE ( '' ) ;
#14 = EDGE_CURVE ( 'NONE', #76, #57, #112, .T. ) ;
#15 = CIRCLE ( 'NONE', #225, 23.60000000000000142 ) ;
#16 = APPROVAL_DATE_TIME ( #44, #61 ) ;
#17 = CC_DESIGN_DATE_AND_TIME_ASSIGNMENT ( #189, #212, ( #4 ) ) ;
#18 = APPROVAL_DATE_TIME ( #266, #259 ) ;
#19 = LOCAL_TIME ( 9, 27, 54.00000000000000000, #104 ) ;
#20 = FACE_OUTER_BOUND ( 'NONE', #197, .T. ) ;
#21 = ORIENTED_EDGE ( 'NONE', *, *, #59, .F. ) ;
#22 = VERTEX_POINT ( 'NONE', #47 ) ;
#23 = DIRECTION ( 'NONE',  ( 0.000000000000000000, 1.000000000000000000, 0.000000000000000000 ) ) ;
#24 = AXIS2_PLACEMENT_3D ( 'NONE', #52, #248, #274 ) ;
#25 = DESIGN_CONTEXT ( 'detailed design', #175, 'design' ) ;
#26 = CIRCLE ( 'NONE', #181, 17.05000000000000071 ) ;
#27 = DIRECTION ( 'NONE',  ( 0.000000000000000000, 0.000000000000000000, 1.000000000000000000 ) ) ;
#28 = EDGE_CURVE ( 'NONE', #22, #205, #11, .T. ) ;
#29 = ORIENTED_EDGE ( 'NONE', *, *, #40, .T. ) ;
#30 = AXIS2_PLACEMENT_3D ( 'NONE', #228, #83, #51 ) ;
#31 = PERSON_AND_ORGANIZATION ( #67, #73 ) ;
#32 = CARTESIAN_POINT ( 'NONE',  ( -19.07223112276065891, 10.18072927306262798, -2.335674679708736671E-15 ) ) ;
#33 = DIRECTION ( 'NONE',  ( -1.000000000000000000, 0.000000000000000000, -1.224646799147353207E-16 ) ) ;
#34 = ORIENTED_EDGE ( 'NONE', *, *, #40, .F. ) ;
#35 = CARTESIAN_POINT ( 'NONE',  ( 0.000000000000000000, 24.08072927306262301, 0.000000000000000000 ) ) ;
#36 = CC_DESIGN_APPROVAL ( #89, ( #4 ) ) ;
#37 = SECURITY_CLASSIFICATION ( '', '', #101 ) ;
#38 = DIRECTION ( 'NONE',  ( 0.000000000000000000, 1.000000000000000000, 0.000000000000000000 ) ) ;
#39 = PERSON_AND_ORGANIZATION_ROLE ( 'design_supplier' ) ;
#40 = EDGE_CURVE ( 'NONE', #262, #74, #26, .T. ) ;
#41 = COORDINATED_UNIVERSAL_TIME_OFFSET ( 1, 0, .AHEAD. ) ;
#42 = EDGE_CURVE ( 'NONE', #262, #57, #131, .T. ) ;
#43 = CIRCLE ( 'NONE', #80, 21.10000000000000853 ) ;
#44 = DATE_AND_TIME ( #147, #87 ) ;
#45 = ORIENTED_EDGE ( 'NONE', *, *, #252, .F. ) ;
#46 = APPROVAL_PERSON_ORGANIZATION ( #31, #89, #238 ) ;
#47 = CARTESIAN_POINT ( 'NONE',  ( 2.088022792546237353E-15, 11.65062468782278771, 17.05000000000000071 ) ) ;
#48 = CIRCLE ( 'NONE', #90, 23.60000000000000142 ) ;
#49 = CARTESIAN_POINT ( 'NONE',  ( 0.000000000000000000, 24.08072927306262301, 0.000000000000000000 ) ) ;
#50 = SPHERICAL_SURFACE ( 'NONE', #70, 21.10000000000000853 ) ;
#51 = DIRECTION ( 'NONE',  ( 0.000000000000000000, 0.000000000000000000, -1.000000000000000000 ) ) ;
#52 = CARTESIAN_POINT ( 'NONE',  ( 0.000000000000000000, 24.08072927306262301, 0.000000000000000000 ) ) ;
#53 = AXIS2_PLACEMENT_3D ( 'NONE', #243, #23, #153 ) ;
#54 = EDGE_LOOP ( 'NONE', ( #219, #79, #150 ) ) ;
#55 = CARTESIAN_POINT ( 'NONE',  ( 0.000000000000000000, 24.08072927306262301, 0.000000000000000000 ) ) ;
#56 = DIRECTION ( 'NONE',  ( 0.000000000000000000, 0.000000000000000000, 1.000000000000000000 ) ) ;
#57 = VERTEX_POINT ( 'NONE', #113 ) ;
#58 = CARTESIAN_POINT ( 'NONE',  ( 0.000000000000000000, 10.18072927306262798, 0.000000000000000000 ) ) ;
#59 = EDGE_CURVE ( 'NONE', #227, #273, #48, .T. ) ;
#60 = DATE_AND_TIME ( #164, #19 ) ;
#61 = APPROVAL ( #236, 'NEURÈENÝ' ) ;
#62 = APPROVAL_ROLE ( '' ) ;
#63 = COORDINATED_UNIVERSAL_TIME_OFFSET ( 1, 0, .AHEAD. ) ;
#64 = VECTOR ( 'NONE', #177, 1000.000000000000000 ) ;
#65 = CIRCLE ( 'NONE', #237, 17.05000000000000071 ) ;
#66 = PRODUCT_DEFINITION_SHAPE ( 'NONE', 'NONE',  #4 ) ;
#67 = PERSON ( 'NEURÈENÝ', 'NEURÈENÝ', 'NEURÈENÝ', ('NEURÈENÝ'), ('NEURÈENÝ'), ('NEURÈENÝ') ) ;
#68 = DIRECTION ( 'NONE',  ( 1.000000000000000000, 0.000000000000000000, 0.000000000000000000 ) ) ;
#69 = ADVANCED_FACE ( 'NONE', ( #170 ), #256, .F. ) ;
#70 = AXIS2_PLACEMENT_3D ( 'NONE', #139, #263, #122 ) ;
#71 = ORIENTED_EDGE ( 'NONE', *, *, #210, .T. ) ;
#72 = CC_DESIGN_PERSON_AND_ORGANIZATION_ASSIGNMENT ( #123, #186, ( #37 ) ) ;
#73 = ORGANIZATION ( 'NEURÈENÝ', 'NEURÈENÝ', '' ) ;
#74 = VERTEX_POINT ( 'NONE', #116 ) ;
#75 = DIRECTION ( 'NONE',  ( 0.000000000000000000, 1.000000000000000000, 0.000000000000000000 ) ) ;
#76 = VERTEX_POINT ( 'NONE', #229 ) ;
#77 = CARTESIAN_POINT ( 'NONE',  ( 19.07223112276065891, 10.18072927306262798, 0.000000000000000000 ) ) ;
#78 = DIRECTION ( 'NONE',  ( 0.000000000000000000, 0.000000000000000000, -1.000000000000000000 ) ) ;
#79 = ORIENTED_EDGE ( 'NONE', *, *, #114, .T. ) ;
#80 = AXIS2_PLACEMENT_3D ( 'NONE', #35, #261, #33 ) ;
#81 = DIRECTION ( 'NONE',  ( 0.000000000000000000, 0.000000000000000000, 1.000000000000000000 ) ) ;
#82 = ORIENTED_EDGE ( 'NONE', *, *, #42, .T. ) ;
#83 = DIRECTION ( 'NONE',  ( 0.000000000000000000, -1.000000000000000000, 0.000000000000000000 ) ) ;
#84 = CARTESIAN_POINT ( 'NONE',  ( 1.292002373100458101E-15, 45.18072927306263153, 0.000000000000000000 ) ) ;
#85 = SHAPE_DEFINITION_REPRESENTATION ( #66, #172 ) ;
#86 = COORDINATED_UNIVERSAL_TIME_OFFSET ( 1, 0, .AHEAD. ) ;
#87 = LOCAL_TIME ( 9, 27, 54.00000000000000000, #86 ) ;
#88 = PLANE ( 'NONE',  #220 ) ;
#89 = APPROVAL ( #216, 'NEURÈENÝ' ) ;
#90 = AXIS2_PLACEMENT_3D ( 'NONE', #275, #200, #92 ) ;
#91 = DIRECTION ( 'NONE',  ( 1.000000000000000000, 0.000000000000000000, 0.000000000000000000 ) ) ;
#92 = DIRECTION ( 'NONE',  ( 1.000000000000000000, 0.000000000000000000, 0.000000000000000000 ) ) ;
#93 = ORIENTED_EDGE ( 'NONE', *, *, #252, .T. ) ;
#94 = CARTESIAN_POINT ( 'NONE',  ( 0.000000000000000000, 11.65062468782278771, -17.05000000000000071 ) ) ;
#95 = CARTESIAN_POINT ( 'NONE',  ( 1.445083222993876839E-15, 47.68072927306262443, 0.000000000000000000 ) ) ;
#96 = CARTESIAN_POINT ( 'NONE',  ( 2.088022792546237353E-15, 20.00000000000000000, 17.05000000000000071 ) ) ;
#97 = PERSON_AND_ORGANIZATION_ROLE ( 'design_owner' ) ;
#98 = SPHERICAL_SURFACE ( 'NONE', #24, 23.60000000000000142 ) ;
#99 = CLOSED_SHELL ( 'NONE', ( #194, #69, #198, #2, #214, #185, #162 ) ) ;
#100 =( NAMED_UNIT ( * ) PLANE_ANGLE_UNIT ( ) SI_UNIT ( $, .RADIAN. ) );
#101 = SECURITY_CLASSIFICATION_LEVEL ( 'unclassified' ) ;
#102 = PERSON_AND_ORGANIZATION ( #67, #73 ) ;
#103 = CIRCLE ( 'NONE', #187, 17.05000000000000071 ) ;
#104 = COORDINATED_UNIVERSAL_TIME_OFFSET ( 1, 0, .AHEAD. ) ;
#105 = PERSON_AND_ORGANIZATION ( #67, #73 ) ;
#106 = ORIENTED_EDGE ( 'NONE', *, *, #114, .F. ) ;
#107 = EDGE_CURVE ( 'NONE', #74, #22, #65, .T. ) ;
#108 = DIRECTION ( 'NONE',  ( 0.000000000000000000, 0.000000000000000000, 1.000000000000000000 ) ) ;
#109 = ORIENTED_EDGE ( 'NONE', *, *, #154, .F. ) ;
#110 = AXIS2_PLACEMENT_3D ( 'NONE', #253, #108, #68 ) ;
#111 = CARTESIAN_POINT ( 'NONE',  ( 0.000000000000000000, 20.00000000000000000, -17.05000000000000071 ) ) ;
#112 = CIRCLE ( 'NONE', #148, 17.05000000000000071 ) ;
#113 = CARTESIAN_POINT ( 'NONE',  ( 0.000000000000000000, 10.18072927306262798, -17.05000000000000071 ) ) ;
#114 = EDGE_CURVE ( 'NONE', #241, #227, #260, .T. ) ;
#115 = FACE_OUTER_BOUND ( 'NONE', #128, .T. ) ;
#116 = CARTESIAN_POINT ( 'NONE',  ( -17.05000000000000071, 11.65062468782278593, -2.088022792546237353E-15 ) ) ;
#117 = ORIENTED_EDGE ( 'NONE', *, *, #28, .T. ) ;
#118 = MECHANICAL_CONTEXT ( 'NONE', #215, 'mechanical' ) ;
#119 = PRODUCT_DEFINITION_FORMATION_WITH_SPECIFIED_SOURCE ( 'LIBOVOLNÝ', '', #233, .NOT_KNOWN. ) ;
#120 = APPROVAL_PERSON_ORGANIZATION ( #251, #259, #62 ) ;
#121 = SPHERICAL_SURFACE ( 'NONE', #167, 23.60000000000000142 ) ;
#122 = DIRECTION ( 'NONE',  ( 1.000000000000000000, 0.000000000000000000, 0.000000000000000000 ) ) ;
#123 = PERSON_AND_ORGANIZATION ( #67, #73 ) ;
#124 = PERSON_AND_ORGANIZATION_ROLE ( 'creator' ) ;
#125 = PERSON_AND_ORGANIZATION_ROLE ( 'creator' ) ;
#126 = FACE_BOUND ( 'NONE', #179, .T. ) ;
#127 = ORIENTED_EDGE ( 'NONE', *, *, #107, .F. ) ;
#128 = EDGE_LOOP ( 'NONE', ( #127, #201, #168, #230 ) ) ;
#129 = UNCERTAINTY_MEASURE_WITH_UNIT (LENGTH_MEASURE( 1.000000000000000082E-05 ), #156, 'distance_accuracy_value', 'NONE');
#130 = DIRECTION ( 'NONE',  ( 0.000000000000000000, 0.000000000000000000, -1.000000000000000000 ) ) ;
#131 = LINE ( 'NONE', #111, #165 ) ;
#132 = EDGE_CURVE ( 'NONE', #57, #76, #145, .T. ) ;
#133 = AXIS2_PLACEMENT_3D ( 'NONE', #58, #38, #10 ) ;
#134 = ORIENTED_EDGE ( 'NONE', *, *, #14, .T. ) ;
#135 = CC_DESIGN_PERSON_AND_ORGANIZATION_ASSIGNMENT ( #143, #97, ( #233 ) ) ;
#136 = DIRECTION ( 'NONE',  ( 1.224646799147353207E-16, 0.000000000000000000, -1.000000000000000000 ) ) ;
#137 = LINE ( 'NONE', #96, #64 ) ;
#138 = VERTEX_POINT ( 'NONE', #84 ) ;
#139 = CARTESIAN_POINT ( 'NONE',  ( 0.000000000000000000, 24.08072927306262301, 0.000000000000000000 ) ) ;
#140 = CARTESIAN_POINT ( 'NONE',  ( 0.000000000000000000, 11.65062468782278771, 0.000000000000000000 ) ) ;
#141 = ORIENTED_EDGE ( 'NONE', *, *, #257, .T. ) ;
#142 = CC_DESIGN_APPROVAL ( #61, ( #119 ) ) ;
#143 = PERSON_AND_ORGANIZATION ( #67, #73 ) ;
#144 = APPROVAL_DATE_TIME ( #190, #89 ) ;
#145 = CIRCLE ( 'NONE', #196, 17.05000000000000071 ) ;
#146 = CC_DESIGN_PERSON_AND_ORGANIZATION_ASSIGNMENT ( #213, #39, ( #119 ) ) ;
#147 = CALENDAR_DATE ( 2022, 11, 11 ) ;
#148 = AXIS2_PLACEMENT_3D ( 'NONE', #169, #75, #152 ) ;
#149 = DIRECTION ( 'NONE',  ( 0.000000000000000000, 1.000000000000000000, 0.000000000000000000 ) ) ;
#150 = ORIENTED_EDGE ( 'NONE', *, *, #59, .T. ) ;
#151 =( GEOMETRIC_REPRESENTATION_CONTEXT ( 3 ) GLOBAL_UNCERTAINTY_ASSIGNED_CONTEXT ( ( #129 ) ) GLOBAL_UNIT_ASSIGNED_CONTEXT ( ( #156, #100, #160 ) ) REPRESENTATION_CONTEXT ( 'NONE', 'WORKASPACE' ) );
#152 = DIRECTION ( 'NONE',  ( 0.000000000000000000, 0.000000000000000000, 1.000000000000000000 ) ) ;
#153 = DIRECTION ( 'NONE',  ( 0.000000000000000000, 0.000000000000000000, 1.000000000000000000 ) ) ;
#154 = EDGE_CURVE ( 'NONE', #22, #76, #137, .T. ) ;
#155 = EDGE_CURVE ( 'NONE', #74, #138, #43, .T. ) ;
#156 =( LENGTH_UNIT ( ) NAMED_UNIT ( * ) SI_UNIT ( .MILLI., .METRE. ) );
#157 = DIRECTION ( 'NONE',  ( 0.000000000000000000, 1.000000000000000000, 0.000000000000000000 ) ) ;
#158 = CIRCLE ( 'NONE', #110, 21.10000000000000853 ) ;
#159 = DIRECTION ( 'NONE',  ( 0.000000000000000000, 1.000000000000000000, 0.000000000000000000 ) ) ;
#160 =( NAMED_UNIT ( * ) SI_UNIT ( $, .STERADIAN. ) SOLID_ANGLE_UNIT ( ) );
#161 = MANIFOLD_SOLID_BREP ( 'Odebrat vysunutím2', #99 ) ;
#162 = ADVANCED_FACE ( 'NONE', ( #246 ), #98, .T. ) ;
#163 = PRODUCT_RELATED_PRODUCT_CATEGORY ( 'detail', '', ( #233 ) ) ;
#164 = CALENDAR_DATE ( 2022, 11, 11 ) ;
#165 = VECTOR ( 'NONE', #199, 1000.000000000000000 ) ;
#166 = DIRECTION ( 'NONE',  ( 0.000000000000000000, -0.000000000000000000, 1.000000000000000000 ) ) ;
#167 = AXIS2_PLACEMENT_3D ( 'NONE', #55, #174, #183 ) ;
#168 = ORIENTED_EDGE ( 'NONE', *, *, #188, .F. ) ;
#169 = CARTESIAN_POINT ( 'NONE',  ( 0.000000000000000000, 10.18072927306262798, 0.000000000000000000 ) ) ;
#170 = FACE_OUTER_BOUND ( 'NONE', #242, .T. ) ;
#171 = CC_DESIGN_APPROVAL ( #259, ( #37 ) ) ;
#172 = ADVANCED_BREP_SHAPE_REPRESENTATION ( 'A9_33', ( #161, #191 ), #151 ) ;
#173 = EDGE_LOOP ( 'NONE', ( #141, #71, #21 ) ) ;
#174 = DIRECTION ( 'NONE',  ( 0.000000000000000000, 0.000000000000000000, -1.000000000000000000 ) ) ;
#175 = APPLICATION_CONTEXT ( 'configuration controlled 3d designs of mechanical parts and assemblies' ) ;
#176 = ORIENTED_EDGE ( 'NONE', *, *, #257, .F. ) ;
#177 = DIRECTION ( 'NONE',  ( 0.000000000000000000, -1.000000000000000000, 0.000000000000000000 ) ) ;
#178 = AXIS2_PLACEMENT_3D ( 'NONE', #9, #159, #203 ) ;
#179 = EDGE_LOOP ( 'NONE', ( #217, #134 ) ) ;
#180 = FACE_OUTER_BOUND ( 'NONE', #249, .T. ) ;
#181 = AXIS2_PLACEMENT_3D ( 'NONE', #221, #277, #27 ) ;
#182 = DIRECTION ( 'NONE',  ( 0.000000000000000000, -1.000000000000000000, 0.000000000000000000 ) ) ;
#183 = DIRECTION ( 'NONE',  ( 1.000000000000000000, 0.000000000000000000, 0.000000000000000000 ) ) ;
#184 = CALENDAR_DATE ( 2022, 11, 11 ) ;
#185 = ADVANCED_FACE ( 'NONE', ( #126, #20 ), #88, .F. ) ;
#186 = PERSON_AND_ORGANIZATION_ROLE ( 'classification_officer' ) ;
#187 = AXIS2_PLACEMENT_3D ( 'NONE', #202, #6, #206 ) ;
#188 = EDGE_CURVE ( 'NONE', #205, #138, #158, .T. ) ;
#189 = DATE_AND_TIME ( #209, #204 ) ;
#190 = DATE_AND_TIME ( #211, #8 ) ;
#191 = AXIS2_PLACEMENT_3D ( 'NONE', #232, #81, #226 ) ;
#192 = LOCAL_TIME ( 9, 27, 54.00000000000000000, #63 ) ;
#193 = EDGE_LOOP ( 'NONE', ( #5, #34, #45, #276 ) ) ;
#194 = ADVANCED_FACE ( 'NONE', ( #240 ), #121, .T. ) ;
#195 = CARTESIAN_POINT ( 'NONE',  ( -23.60000000000000142, 10.18072927306262798, 32.33248424935249687 ) ) ;
#196 = AXIS2_PLACEMENT_3D ( 'NONE', #7, #231, #56 ) ;
#197 = EDGE_LOOP ( 'NONE', ( #176, #106 ) ) ;
#198 = ADVANCED_FACE ( 'NONE', ( #115 ), #50, .F. ) ;
#199 = DIRECTION ( 'NONE',  ( 0.000000000000000000, -1.000000000000000000, 0.000000000000000000 ) ) ;
#200 = DIRECTION ( 'NONE',  ( 0.000000000000000000, 0.000000000000000000, 1.000000000000000000 ) ) ;
#201 = ORIENTED_EDGE ( 'NONE', *, *, #155, .T. ) ;
#202 = CARTESIAN_POINT ( 'NONE',  ( 0.000000000000000000, 11.65062468782278771, 0.000000000000000000 ) ) ;
#203 = DIRECTION ( 'NONE',  ( 0.000000000000000000, 0.000000000000000000, 1.000000000000000000 ) ) ;
#204 = LOCAL_TIME ( 9, 27, 54.00000000000000000, #12 ) ;
#205 = VERTEX_POINT ( 'NONE', #245 ) ;
#206 = DIRECTION ( 'NONE',  ( 0.000000000000000000, 0.000000000000000000, 1.000000000000000000 ) ) ;
#207 = DIRECTION ( 'NONE',  ( 0.000000000000000000, 0.000000000000000000, 1.000000000000000000 ) ) ;
#208 = CYLINDRICAL_SURFACE ( 'NONE', #30, 17.05000000000000071 ) ;
#209 = CALENDAR_DATE ( 2022, 11, 11 ) ;
#210 = EDGE_CURVE ( 'NONE', #241, #273, #15, .T. ) ;
#211 = CALENDAR_DATE ( 2022, 11, 11 ) ;
#212 = DATE_TIME_ROLE ( 'creation_date' ) ;
#213 = PERSON_AND_ORGANIZATION ( #67, #73 ) ;
#214 = ADVANCED_FACE ( 'NONE', ( #180 ), #208, .F. ) ;
#215 = APPLICATION_CONTEXT ( 'configuration controlled 3d designs of mechanical parts and assemblies' ) ;
#216 = APPROVAL_STATUS ( 'not_yet_approved' ) ;
#217 = ORIENTED_EDGE ( 'NONE', *, *, #132, .T. ) ;
#218 = CC_DESIGN_PERSON_AND_ORGANIZATION_ASSIGNMENT ( #105, #124, ( #4 ) ) ;
#219 = ORIENTED_EDGE ( 'NONE', *, *, #210, .F. ) ;
#220 = AXIS2_PLACEMENT_3D ( 'NONE', #195, #149, #166 ) ;
#221 = CARTESIAN_POINT ( 'NONE',  ( 0.000000000000000000, 11.65062468782278771, 0.000000000000000000 ) ) ;
#222 = AXIS2_PLACEMENT_3D ( 'NONE', #264, #182, #78 ) ;
#223 = SPHERICAL_SURFACE ( 'NONE', #239, 21.10000000000000853 ) ;
#224 = ORIENTED_EDGE ( 'NONE', *, *, #132, .F. ) ;
#225 = AXIS2_PLACEMENT_3D ( 'NONE', #265, #136, #258 ) ;
#226 = DIRECTION ( 'NONE',  ( 1.000000000000000000, 0.000000000000000000, 0.000000000000000000 ) ) ;
#227 = VERTEX_POINT ( 'NONE', #77 ) ;
#228 = CARTESIAN_POINT ( 'NONE',  ( 0.000000000000000000, 20.00000000000000000, 0.000000000000000000 ) ) ;
#229 = CARTESIAN_POINT ( 'NONE',  ( 2.088022792546237353E-15, 10.18072927306262798, 17.05000000000000071 ) ) ;
#230 = ORIENTED_EDGE ( 'NONE', *, *, #28, .F. ) ;
#231 = DIRECTION ( 'NONE',  ( 0.000000000000000000, 1.000000000000000000, 0.000000000000000000 ) ) ;
#232 = CARTESIAN_POINT ( 'NONE',  ( 0.000000000000000000, 0.000000000000000000, 0.000000000000000000 ) ) ;
#233 = PRODUCT ( 'A9_33', 'A9_33', '', ( #118 ) ) ;
#234 = APPLICATION_PROTOCOL_DEFINITION ( 'international standard', 'config_control_design', 1994, #175 ) ;
#235 = DATE_TIME_ROLE ( 'classification_date' ) ;
#236 = APPROVAL_STATUS ( 'not_yet_approved' ) ;
#237 = AXIS2_PLACEMENT_3D ( 'NONE', #140, #157, #207 ) ;
#238 = APPROVAL_ROLE ( '' ) ;
#239 = AXIS2_PLACEMENT_3D ( 'NONE', #49, #130, #91 ) ;
#240 = FACE_OUTER_BOUND ( 'NONE', #173, .T. ) ;
#241 = VERTEX_POINT ( 'NONE', #32 ) ;
#242 = EDGE_LOOP ( 'NONE', ( #268, #3, #224, #244, #29 ) ) ;
#243 = CARTESIAN_POINT ( 'NONE',  ( 0.000000000000000000, 11.65062468782278771, 0.000000000000000000 ) ) ;
#244 = ORIENTED_EDGE ( 'NONE', *, *, #42, .F. ) ;
#245 = CARTESIAN_POINT ( 'NONE',  ( 17.05000000000000071, 11.65062468782278593, 0.000000000000000000 ) ) ;
#246 = FACE_OUTER_BOUND ( 'NONE', #54, .T. ) ;
#247 = CC_DESIGN_DATE_AND_TIME_ASSIGNMENT ( #60, #235, ( #37 ) ) ;
#248 = DIRECTION ( 'NONE',  ( 0.000000000000000000, 0.000000000000000000, -1.000000000000000000 ) ) ;
#249 = EDGE_LOOP ( 'NONE', ( #109, #117, #93, #82, #1 ) ) ;
#250 = APPLICATION_PROTOCOL_DEFINITION ( 'international standard', 'config_control_design', 1994, #215 ) ;
#251 = PERSON_AND_ORGANIZATION ( #67, #73 ) ;
#252 = EDGE_CURVE ( 'NONE', #205, #262, #103, .T. ) ;
#253 = CARTESIAN_POINT ( 'NONE',  ( 0.000000000000000000, 24.08072927306262301, 0.000000000000000000 ) ) ;
#254 = CIRCLE ( 'NONE', #133, 19.07223112276065891 ) ;
#255 = FACE_OUTER_BOUND ( 'NONE', #193, .T. ) ;
#256 = CYLINDRICAL_SURFACE ( 'NONE', #222, 17.05000000000000071 ) ;
#257 = EDGE_CURVE ( 'NONE', #227, #241, #254, .T. ) ;
#258 = DIRECTION ( 'NONE',  ( -1.000000000000000000, 0.000000000000000000, -1.224646799147353207E-16 ) ) ;
#259 = APPROVAL ( #267, 'NEURÈENÝ' ) ;
#260 = CIRCLE ( 'NONE', #178, 19.07223112276065891 ) ;
#261 = DIRECTION ( 'NONE',  ( 1.224646799147353207E-16, 0.000000000000000000, -1.000000000000000000 ) ) ;
#262 = VERTEX_POINT ( 'NONE', #94 ) ;
#263 = DIRECTION ( 'NONE',  ( 0.000000000000000000, 0.000000000000000000, -1.000000000000000000 ) ) ;
#264 = CARTESIAN_POINT ( 'NONE',  ( 0.000000000000000000, 20.00000000000000000, 0.000000000000000000 ) ) ;
#265 = CARTESIAN_POINT ( 'NONE',  ( 0.000000000000000000, 24.08072927306262301, 0.000000000000000000 ) ) ;
#266 = DATE_AND_TIME ( #184, #192 ) ;
#267 = APPROVAL_STATUS ( 'not_yet_approved' ) ;
#268 = ORIENTED_EDGE ( 'NONE', *, *, #107, .T. ) ;
#269 = PERSON_AND_ORGANIZATION ( #67, #73 ) ;
#270 = CC_DESIGN_PERSON_AND_ORGANIZATION_ASSIGNMENT ( #102, #125, ( #119 ) ) ;
#271 = APPROVAL_PERSON_ORGANIZATION ( #269, #61, #13 ) ;
#272 = CC_DESIGN_SECURITY_CLASSIFICATION ( #37, ( #119 ) ) ;
#273 = VERTEX_POINT ( 'NONE', #95 ) ;
#274 = DIRECTION ( 'NONE',  ( 1.000000000000000000, 0.000000000000000000, 0.000000000000000000 ) ) ;
#275 = CARTESIAN_POINT ( 'NONE',  ( 0.000000000000000000, 24.08072927306262301, 0.000000000000000000 ) ) ;
#276 = ORIENTED_EDGE ( 'NONE', *, *, #188, .T. ) ;
#277 = DIRECTION ( 'NONE',  ( 0.000000000000000000, 1.000000000000000000, 0.000000000000000000 ) ) ;
ENDSEC;
END-ISO-10303-21;
