ISO-10303-21;
HEADER;
FILE_DESCRIPTION (( 'STEP AP203' ),
    '1' );
FILE_NAME ('A9_48.STEP',
    '2021-08-04T13:02:43',
    ( '' ),
    ( '' ),
    'SwSTEP 2.0',
    'SolidWorks 2019',
    '' );
FILE_SCHEMA (( 'CONFIG_CONTROL_DESIGN' ));
ENDSEC;

DATA;
#1 = ORIENTED_EDGE ( 'NONE', *, *, #48, .T. ) ;
#2 = COORDINATED_UNIVERSAL_TIME_OFFSET ( 1, 0, .AHEAD. ) ;
#3 = PRODUCT ( 'A9_48', 'A9_48', '', ( #148 ) ) ;
#4 = VERTEX_POINT ( 'NONE', #85 ) ;
#5 = DIRECTION ( 'NONE',  ( 0.000000000000000000, 0.000000000000000000, -1.000000000000000000 ) ) ;
#6 = COORDINATED_UNIVERSAL_TIME_OFFSET ( 1, 0, .AHEAD. ) ;
#7 = APPROVAL ( #108, 'UNSPECIFIED' ) ;
#8 = DIRECTION ( 'NONE',  ( 1.000000000000000000, 0.000000000000000000, 0.000000000000000000 ) ) ;
#9 = ORIENTED_EDGE ( 'NONE', *, *, #273, .T. ) ;
#10 = DIRECTION ( 'NONE',  ( 1.000000000000000000, 0.000000000000000000, 0.000000000000000000 ) ) ;
#11 = PLANE ( 'NONE',  #165 ) ;
#12 = SPHERICAL_SURFACE ( 'NONE', #153, 27.99999999999999645 ) ;
#13 = DIRECTION ( 'NONE',  ( 1.224646799147353207E-16, 0.000000000000000000, -1.000000000000000000 ) ) ;
#14 = ORIENTED_EDGE ( 'NONE', *, *, #225, .F. ) ;
#15 = CARTESIAN_POINT ( 'NONE',  ( 1.714505518806294441E-15, 52.08072927306262301, 0.000000000000000000 ) ) ;
#16 = ORIENTED_EDGE ( 'NONE', *, *, #98, .T. ) ;
#17 = CC_DESIGN_PERSON_AND_ORGANIZATION_ASSIGNMENT ( #260, #60, ( #115 ) ) ;
#18 = ORIENTED_EDGE ( 'NONE', *, *, #196, .F. ) ;
#19 = CIRCLE ( 'NONE', #182, 24.25000000000000000 ) ;
#20 = FACE_OUTER_BOUND ( 'NONE', #156, .T. ) ;
#21 = CYLINDRICAL_SURFACE ( 'NONE', #207, 24.25000000000000000 ) ;
#22 = SECURITY_CLASSIFICATION_LEVEL ( 'unclassified' ) ;
#23 = CLOSED_SHELL ( 'NONE', ( #36, #45, #66, #171, #268, #223, #247 ) ) ;
#24 = DIRECTION ( 'NONE',  ( 0.000000000000000000, 0.000000000000000000, 1.000000000000000000 ) ) ;
#25 = EDGE_CURVE ( 'NONE', #104, #59, #103, .T. ) ;
#26 = COORDINATED_UNIVERSAL_TIME_OFFSET ( 1, 0, .AHEAD. ) ;
#27 = SHAPE_DEFINITION_REPRESENTATION ( #79, #249 ) ;
#28 = CARTESIAN_POINT ( 'NONE',  ( 0.000000000000000000, 10.08296159389321289, 0.000000000000000000 ) ) ;
#29 = LOCAL_TIME ( 15, 2, 43.00000000000000000, #84 ) ;
#30 =( GEOMETRIC_REPRESENTATION_CONTEXT ( 3 ) GLOBAL_UNCERTAINTY_ASSIGNED_CONTEXT ( ( #133 ) ) GLOBAL_UNIT_ASSIGNED_CONTEXT ( ( #258, #130, #105 ) ) REPRESENTATION_CONTEXT ( 'NONE', 'WORKASPACE' ) );
#31 = CARTESIAN_POINT ( 'NONE',  ( 0.000000000000000000, 24.08072927306262301, 0.000000000000000000 ) ) ;
#32 = DIRECTION ( 'NONE',  ( 0.000000000000000000, -0.000000000000000000, 1.000000000000000000 ) ) ;
#33 = EDGE_LOOP ( 'NONE', ( #255, #89, #9, #193, #217 ) ) ;
#34 = CARTESIAN_POINT ( 'NONE',  ( 0.000000000000000000, 7.080729273062618567, 0.000000000000000000 ) ) ;
#35 = VERTEX_POINT ( 'NONE', #191 ) ;
#36 = ADVANCED_FACE ( 'NONE', ( #20 ), #83, .T. ) ;
#37 = EDGE_LOOP ( 'NONE', ( #56, #16 ) ) ;
#38 = AXIS2_PLACEMENT_3D ( 'NONE', #179, #65, #174 ) ;
#39 = VERTEX_POINT ( 'NONE', #276 ) ;
#40 = DATE_TIME_ROLE ( 'creation_date' ) ;
#41 = PERSON_AND_ORGANIZATION ( #117, #155 ) ;
#42 = APPROVAL_DATE_TIME ( #62, #138 ) ;
#43 = AXIS2_PLACEMENT_3D ( 'NONE', #210, #211, #270 ) ;
#44 = APPROVAL_ROLE ( '' ) ;
#45 = ADVANCED_FACE ( 'NONE', ( #125 ), #21, .F. ) ;
#46 = DATE_AND_TIME ( #112, #126 ) ;
#47 = CALENDAR_DATE ( 2021, 4, 8 ) ;
#48 = EDGE_CURVE ( 'NONE', #219, #158, #254, .T. ) ;
#49 = CARTESIAN_POINT ( 'NONE',  ( 24.71841418861654560, 7.080729273062618567, 0.000000000000000000 ) ) ;
#50 = LINE ( 'NONE', #269, #73 ) ;
#51 = CIRCLE ( 'NONE', #252, 24.25000000000000000 ) ;
#52 = CARTESIAN_POINT ( 'NONE',  ( -30.00000000000000000, 7.080729273062618567, 32.33248424935249687 ) ) ;
#53 = DIRECTION ( 'NONE',  ( 0.000000000000000000, 0.000000000000000000, 1.000000000000000000 ) ) ;
#54 = FACE_OUTER_BOUND ( 'NONE', #80, .T. ) ;
#55 = ORIENTED_EDGE ( 'NONE', *, *, #232, .F. ) ;
#56 = ORIENTED_EDGE ( 'NONE', *, *, #111, .T. ) ;
#57 = CYLINDRICAL_SURFACE ( 'NONE', #38, 24.25000000000000000 ) ;
#58 = CC_DESIGN_PERSON_AND_ORGANIZATION_ASSIGNMENT ( #267, #67, ( #250 ) ) ;
#59 = VERTEX_POINT ( 'NONE', #49 ) ;
#60 = PERSON_AND_ORGANIZATION_ROLE ( 'creator' ) ;
#61 = CC_DESIGN_SECURITY_CLASSIFICATION ( #250, ( #172 ) ) ;
#62 = DATE_AND_TIME ( #81, #265 ) ;
#63 = APPLICATION_CONTEXT ( 'configuration controlled 3d designs of mechanical parts and assemblies' ) ;
#64 = PERSON_AND_ORGANIZATION_ROLE ( 'design_owner' ) ;
#65 = DIRECTION ( 'NONE',  ( 0.000000000000000000, -1.000000000000000000, 0.000000000000000000 ) ) ;
#66 = ADVANCED_FACE ( 'NONE', ( #71 ), #76, .F. ) ;
#67 = PERSON_AND_ORGANIZATION_ROLE ( 'classification_officer' ) ;
#68 = ORIENTED_EDGE ( 'NONE', *, *, #200, .T. ) ;
#69 = DIRECTION ( 'NONE',  ( 0.000000000000000000, 0.000000000000000000, 1.000000000000000000 ) ) ;
#70 = AXIS2_PLACEMENT_3D ( 'NONE', #119, #13, #96 ) ;
#71 = FACE_OUTER_BOUND ( 'NONE', #173, .T. ) ;
#72 = EDGE_CURVE ( 'NONE', #4, #259, #50, .T. ) ;
#73 = VECTOR ( 'NONE', #136, 1000.000000000000000 ) ;
#74 = DIRECTION ( 'NONE',  ( 0.000000000000000000, 1.000000000000000000, 0.000000000000000000 ) ) ;
#75 = DIRECTION ( 'NONE',  ( 0.000000000000000000, 0.000000000000000000, -1.000000000000000000 ) ) ;
#76 = SPHERICAL_SURFACE ( 'NONE', #162, 27.99999999999999645 ) ;
#77 = CIRCLE ( 'NONE', #114, 30.00000000000000000 ) ;
#78 = ORIENTED_EDGE ( 'NONE', *, *, #225, .T. ) ;
#79 = PRODUCT_DEFINITION_SHAPE ( 'NONE', 'NONE',  #115 ) ;
#80 = EDGE_LOOP ( 'NONE', ( #243, #18, #170, #141 ) ) ;
#81 = CALENDAR_DATE ( 2021, 4, 8 ) ;
#82 = AXIS2_PLACEMENT_3D ( 'NONE', #132, #88, #8 ) ;
#83 = SPHERICAL_SURFACE ( 'NONE', #122, 30.00000000000000000 ) ;
#84 = COORDINATED_UNIVERSAL_TIME_OFFSET ( 1, 0, .AHEAD. ) ;
#85 = CARTESIAN_POINT ( 'NONE',  ( 0.000000000000000000, 10.08296159389321289, -24.25000000000000000 ) ) ;
#86 = CIRCLE ( 'NONE', #157, 27.99999999999999645 ) ;
#87 = PERSON_AND_ORGANIZATION ( #117, #155 ) ;
#88 = DIRECTION ( 'NONE',  ( 0.000000000000000000, 0.000000000000000000, 1.000000000000000000 ) ) ;
#89 = ORIENTED_EDGE ( 'NONE', *, *, #232, .T. ) ;
#90 = APPROVAL_PERSON_ORGANIZATION ( #128, #138, #44 ) ;
#91 = CARTESIAN_POINT ( 'NONE',  ( 0.000000000000000000, 7.080729273062618567, 0.000000000000000000 ) ) ;
#92 = EDGE_CURVE ( 'NONE', #59, #104, #146, .T. ) ;
#93 = DIRECTION ( 'NONE',  ( 0.000000000000000000, -1.000000000000000000, 0.000000000000000000 ) ) ;
#94 = CARTESIAN_POINT ( 'NONE',  ( 2.969768487932331681E-15, 10.08296159389321289, 24.25000000000000000 ) ) ;
#95 = CIRCLE ( 'NONE', #201, 24.25000000000000000 ) ;
#96 = DIRECTION ( 'NONE',  ( -1.000000000000000000, 0.000000000000000000, -1.224646799147352961E-16 ) ) ;
#97 = CIRCLE ( 'NONE', #43, 27.99999999999999645 ) ;
#98 = EDGE_CURVE ( 'NONE', #158, #259, #95, .T. ) ;
#99 = DIRECTION ( 'NONE',  ( 0.000000000000000000, 1.000000000000000000, 0.000000000000000000 ) ) ;
#100 = ORIENTED_EDGE ( 'NONE', *, *, #200, .F. ) ;
#101 = ORIENTED_EDGE ( 'NONE', *, *, #25, .T. ) ;
#102 = CC_DESIGN_APPROVAL ( #190, ( #250 ) ) ;
#103 = CIRCLE ( 'NONE', #240, 24.71841418861654560 ) ;
#104 = VERTEX_POINT ( 'NONE', #121 ) ;
#105 =( NAMED_UNIT ( * ) SI_UNIT ( $, .STERADIAN. ) SOLID_ANGLE_UNIT ( ) );
#106 = CARTESIAN_POINT ( 'NONE',  ( 0.000000000000000000, 20.00000000000000000, 0.000000000000000000 ) ) ;
#107 = APPLICATION_PROTOCOL_DEFINITION ( 'international standard', 'config_control_design', 1994, #63 ) ;
#108 = APPROVAL_STATUS ( 'not_yet_approved' ) ;
#109 = AXIS2_PLACEMENT_3D ( 'NONE', #274, #99, #189 ) ;
#110 = DATE_AND_TIME ( #47, #203 ) ;
#111 = EDGE_CURVE ( 'NONE', #259, #158, #261, .T. ) ;
#112 = CALENDAR_DATE ( 2021, 4, 8 ) ;
#113 = DIRECTION ( 'NONE',  ( 1.000000000000000000, 0.000000000000000000, 0.000000000000000000 ) ) ;
#114 = AXIS2_PLACEMENT_3D ( 'NONE', #140, #118, #167 ) ;
#115 = PRODUCT_DEFINITION ( 'UNKNOWN', '', #172, #178 ) ;
#116 = CARTESIAN_POINT ( 'NONE',  ( 0.000000000000000000, 10.08296159389321289, 0.000000000000000000 ) ) ;
#117 = PERSON ( 'UNSPECIFIED', 'UNSPECIFIED', 'UNSPECIFIED', ('UNSPECIFIED'), ('UNSPECIFIED'), ('UNSPECIFIED') ) ;
#118 = DIRECTION ( 'NONE',  ( 0.000000000000000000, 0.000000000000000000, 1.000000000000000000 ) ) ;
#119 = CARTESIAN_POINT ( 'NONE',  ( 0.000000000000000000, 24.08072927306262301, 0.000000000000000000 ) ) ;
#120 = CC_DESIGN_DATE_AND_TIME_ASSIGNMENT ( #239, #40, ( #115 ) ) ;
#121 = CARTESIAN_POINT ( 'NONE',  ( -24.71841418861654560, 7.080729273062618567, -3.027132681608777545E-15 ) ) ;
#122 = AXIS2_PLACEMENT_3D ( 'NONE', #175, #147, #238 ) ;
#123 = ORIENTED_EDGE ( 'NONE', *, *, #92, .T. ) ;
#124 = ORIENTED_EDGE ( 'NONE', *, *, #111, .F. ) ;
#125 = FACE_OUTER_BOUND ( 'NONE', #214, .T. ) ;
#126 = LOCAL_TIME ( 15, 2, 43.00000000000000000, #134 ) ;
#127 = EDGE_LOOP ( 'NONE', ( #14, #101, #142 ) ) ;
#128 = PERSON_AND_ORGANIZATION ( #117, #155 ) ;
#129 = PERSON_AND_ORGANIZATION_ROLE ( 'design_supplier' ) ;
#130 =( NAMED_UNIT ( * ) PLANE_ANGLE_UNIT ( ) SI_UNIT ( $, .RADIAN. ) );
#131 = LOCAL_TIME ( 15, 2, 43.00000000000000000, #6 ) ;
#132 = CARTESIAN_POINT ( 'NONE',  ( 0.000000000000000000, 0.000000000000000000, 0.000000000000000000 ) ) ;
#133 = UNCERTAINTY_MEASURE_WITH_UNIT (LENGTH_MEASURE( 1.000000000000000082E-05 ), #258, 'distance_accuracy_value', 'NONE');
#134 = COORDINATED_UNIVERSAL_TIME_OFFSET ( 1, 0, .AHEAD. ) ;
#135 = EDGE_CURVE ( 'NONE', #35, #208, #86, .T. ) ;
#136 = DIRECTION ( 'NONE',  ( 0.000000000000000000, -1.000000000000000000, 0.000000000000000000 ) ) ;
#137 = VERTEX_POINT ( 'NONE', #228 ) ;
#138 = APPROVAL ( #262, 'UNSPECIFIED' ) ;
#139 = DIRECTION ( 'NONE',  ( 0.000000000000000000, 1.000000000000000000, 0.000000000000000000 ) ) ;
#140 = CARTESIAN_POINT ( 'NONE',  ( 0.000000000000000000, 24.08072927306262301, 0.000000000000000000 ) ) ;
#141 = ORIENTED_EDGE ( 'NONE', *, *, #135, .T. ) ;
#142 = ORIENTED_EDGE ( 'NONE', *, *, #154, .T. ) ;
#143 = CC_DESIGN_PERSON_AND_ORGANIZATION_ASSIGNMENT ( #87, #64, ( #3 ) ) ;
#144 = DIRECTION ( 'NONE',  ( 0.000000000000000000, 1.000000000000000000, 0.000000000000000000 ) ) ;
#145 = CARTESIAN_POINT ( 'NONE',  ( 0.000000000000000000, 10.08296159389321289, 0.000000000000000000 ) ) ;
#146 = CIRCLE ( 'NONE', #161, 24.71841418861654560 ) ;
#147 = DIRECTION ( 'NONE',  ( 0.000000000000000000, 0.000000000000000000, -1.000000000000000000 ) ) ;
#148 = MECHANICAL_CONTEXT ( 'NONE', #168, 'mechanical' ) ;
#149 = CC_DESIGN_DATE_AND_TIME_ASSIGNMENT ( #110, #205, ( #250 ) ) ;
#150 = PERSON_AND_ORGANIZATION ( #117, #155 ) ;
#151 = APPROVAL_ROLE ( '' ) ;
#152 = DATE_AND_TIME ( #199, #29 ) ;
#153 = AXIS2_PLACEMENT_3D ( 'NONE', #160, #212, #113 ) ;
#154 = EDGE_CURVE ( 'NONE', #59, #39, #77, .T. ) ;
#155 = ORGANIZATION ( 'UNSPECIFIED', 'UNSPECIFIED', '' ) ;
#156 = EDGE_LOOP ( 'NONE', ( #123, #78, #195 ) ) ;
#157 = AXIS2_PLACEMENT_3D ( 'NONE', #31, #53, #10 ) ;
#158 = VERTEX_POINT ( 'NONE', #231 ) ;
#159 = DIRECTION ( 'NONE',  ( 0.000000000000000000, 0.000000000000000000, 1.000000000000000000 ) ) ;
#160 = CARTESIAN_POINT ( 'NONE',  ( 0.000000000000000000, 24.08072927306262301, 0.000000000000000000 ) ) ;
#161 = AXIS2_PLACEMENT_3D ( 'NONE', #91, #229, #69 ) ;
#162 = AXIS2_PLACEMENT_3D ( 'NONE', #185, #75, #253 ) ;
#163 = EDGE_CURVE ( 'NONE', #137, #208, #97, .T. ) ;
#164 = APPROVAL_PERSON_ORGANIZATION ( #202, #190, #266 ) ;
#165 = AXIS2_PLACEMENT_3D ( 'NONE', #52, #230, #32 ) ;
#166 = DIRECTION ( 'NONE',  ( 0.000000000000000000, 1.000000000000000000, 0.000000000000000000 ) ) ;
#167 = DIRECTION ( 'NONE',  ( 1.000000000000000000, 0.000000000000000000, 0.000000000000000000 ) ) ;
#168 = APPLICATION_CONTEXT ( 'configuration controlled 3d designs of mechanical parts and assemblies' ) ;
#169 = CARTESIAN_POINT ( 'NONE',  ( 0.000000000000000000, 7.080729273062618567, 0.000000000000000000 ) ) ;
#170 = ORIENTED_EDGE ( 'NONE', *, *, #273, .F. ) ;
#171 = ADVANCED_FACE ( 'NONE', ( #54 ), #12, .F. ) ;
#172 = PRODUCT_DEFINITION_FORMATION_WITH_SPECIFIED_SOURCE ( 'ANY', '', #3, .NOT_KNOWN. ) ;
#173 = EDGE_LOOP ( 'NONE', ( #100, #215, #256, #55 ) ) ;
#174 = DIRECTION ( 'NONE',  ( 0.000000000000000000, 0.000000000000000000, -1.000000000000000000 ) ) ;
#175 = CARTESIAN_POINT ( 'NONE',  ( 0.000000000000000000, 24.08072927306262301, 0.000000000000000000 ) ) ;
#176 = AXIS2_PLACEMENT_3D ( 'NONE', #34, #139, #186 ) ;
#177 = CARTESIAN_POINT ( 'NONE',  ( 0.000000000000000000, 24.08072927306262301, 0.000000000000000000 ) ) ;
#178 = DESIGN_CONTEXT ( 'detailed design', #63, 'design' ) ;
#179 = CARTESIAN_POINT ( 'NONE',  ( 0.000000000000000000, 20.00000000000000000, 0.000000000000000000 ) ) ;
#180 = VECTOR ( 'NONE', #93, 1000.000000000000000 ) ;
#181 = CC_DESIGN_PERSON_AND_ORGANIZATION_ASSIGNMENT ( #150, #241, ( #172 ) ) ;
#182 = AXIS2_PLACEMENT_3D ( 'NONE', #28, #74, #248 ) ;
#183 = CIRCLE ( 'NONE', #70, 30.00000000000000000 ) ;
#184 = APPROVAL_DATE_TIME ( #46, #190 ) ;
#185 = CARTESIAN_POINT ( 'NONE',  ( 0.000000000000000000, 24.08072927306262301, 0.000000000000000000 ) ) ;
#186 = DIRECTION ( 'NONE',  ( 0.000000000000000000, 0.000000000000000000, 1.000000000000000000 ) ) ;
#187 = FACE_BOUND ( 'NONE', #37, .T. ) ;
#188 = DIRECTION ( 'NONE',  ( 0.000000000000000000, 1.000000000000000000, 0.000000000000000000 ) ) ;
#189 = DIRECTION ( 'NONE',  ( 0.000000000000000000, 0.000000000000000000, 1.000000000000000000 ) ) ;
#190 = APPROVAL ( #245, 'UNSPECIFIED' ) ;
#191 = CARTESIAN_POINT ( 'NONE',  ( 24.25000000000000000, 10.08296159389321289, 0.000000000000000000 ) ) ;
#192 = CC_DESIGN_APPROVAL ( #7, ( #115 ) ) ;
#193 = ORIENTED_EDGE ( 'NONE', *, *, #72, .T. ) ;
#194 = APPLICATION_PROTOCOL_DEFINITION ( 'international standard', 'config_control_design', 1994, #168 ) ;
#195 = ORIENTED_EDGE ( 'NONE', *, *, #154, .F. ) ;
#196 = EDGE_CURVE ( 'NONE', #4, #137, #19, .T. ) ;
#197 = DIRECTION ( 'NONE',  ( 0.000000000000000000, -1.000000000000000000, 0.000000000000000000 ) ) ;
#198 = PERSON_AND_ORGANIZATION ( #117, #155 ) ;
#199 = CALENDAR_DATE ( 2021, 4, 8 ) ;
#200 = EDGE_CURVE ( 'NONE', #137, #219, #51, .T. ) ;
#201 = AXIS2_PLACEMENT_3D ( 'NONE', #169, #166, #159 ) ;
#202 = PERSON_AND_ORGANIZATION ( #117, #155 ) ;
#203 = LOCAL_TIME ( 15, 2, 43.00000000000000000, #26 ) ;
#204 = MANIFOLD_SOLID_BREP ( 'Odebrat vysunutím2', #23 ) ;
#205 = DATE_TIME_ROLE ( 'classification_date' ) ;
#206 = SPHERICAL_SURFACE ( 'NONE', #221, 30.00000000000000000 ) ;
#207 = AXIS2_PLACEMENT_3D ( 'NONE', #106, #197, #5 ) ;
#208 = VERTEX_POINT ( 'NONE', #15 ) ;
#209 = DIRECTION ( 'NONE',  ( 0.000000000000000000, 0.000000000000000000, 1.000000000000000000 ) ) ;
#210 = CARTESIAN_POINT ( 'NONE',  ( 0.000000000000000000, 24.08072927306262301, 0.000000000000000000 ) ) ;
#211 = DIRECTION ( 'NONE',  ( 1.224646799147353207E-16, 0.000000000000000000, -1.000000000000000000 ) ) ;
#212 = DIRECTION ( 'NONE',  ( 0.000000000000000000, 0.000000000000000000, -1.000000000000000000 ) ) ;
#213 = PRODUCT_RELATED_PRODUCT_CATEGORY ( 'detail', '', ( #3 ) ) ;
#214 = EDGE_LOOP ( 'NONE', ( #68, #1, #124, #234, #226 ) ) ;
#215 = ORIENTED_EDGE ( 'NONE', *, *, #163, .T. ) ;
#216 = AXIS2_PLACEMENT_3D ( 'NONE', #145, #237, #24 ) ;
#217 = ORIENTED_EDGE ( 'NONE', *, *, #98, .F. ) ;
#218 = EDGE_LOOP ( 'NONE', ( #233, #246 ) ) ;
#219 = VERTEX_POINT ( 'NONE', #94 ) ;
#220 = FACE_OUTER_BOUND ( 'NONE', #33, .T. ) ;
#221 = AXIS2_PLACEMENT_3D ( 'NONE', #177, #264, #224 ) ;
#222 = CALENDAR_DATE ( 2021, 4, 8 ) ;
#223 = ADVANCED_FACE ( 'NONE', ( #187, #272 ), #11, .F. ) ;
#224 = DIRECTION ( 'NONE',  ( 1.000000000000000000, 0.000000000000000000, 0.000000000000000000 ) ) ;
#225 = EDGE_CURVE ( 'NONE', #104, #39, #183, .T. ) ;
#226 = ORIENTED_EDGE ( 'NONE', *, *, #196, .T. ) ;
#227 = CC_DESIGN_APPROVAL ( #138, ( #172 ) ) ;
#228 = CARTESIAN_POINT ( 'NONE',  ( -24.25000000000000000, 10.08296159389321289, -2.969768487932331681E-15 ) ) ;
#229 = DIRECTION ( 'NONE',  ( 0.000000000000000000, 1.000000000000000000, 0.000000000000000000 ) ) ;
#230 = DIRECTION ( 'NONE',  ( 0.000000000000000000, 1.000000000000000000, 0.000000000000000000 ) ) ;
#231 = CARTESIAN_POINT ( 'NONE',  ( 2.969768487932331681E-15, 7.080729273062618567, 24.25000000000000000 ) ) ;
#232 = EDGE_CURVE ( 'NONE', #219, #35, #235, .T. ) ;
#233 = ORIENTED_EDGE ( 'NONE', *, *, #92, .F. ) ;
#234 = ORIENTED_EDGE ( 'NONE', *, *, #72, .F. ) ;
#235 = CIRCLE ( 'NONE', #109, 24.25000000000000000 ) ;
#236 = DIRECTION ( 'NONE',  ( 0.000000000000000000, 0.000000000000000000, 1.000000000000000000 ) ) ;
#237 = DIRECTION ( 'NONE',  ( 0.000000000000000000, 1.000000000000000000, 0.000000000000000000 ) ) ;
#238 = DIRECTION ( 'NONE',  ( 1.000000000000000000, 0.000000000000000000, 0.000000000000000000 ) ) ;
#239 = DATE_AND_TIME ( #222, #131 ) ;
#240 = AXIS2_PLACEMENT_3D ( 'NONE', #257, #144, #236 ) ;
#241 = PERSON_AND_ORGANIZATION_ROLE ( 'creator' ) ;
#242 = APPROVAL_DATE_TIME ( #152, #7 ) ;
#243 = ORIENTED_EDGE ( 'NONE', *, *, #163, .F. ) ;
#244 = CARTESIAN_POINT ( 'NONE',  ( 0.000000000000000000, 7.080729273062618567, -24.25000000000000000 ) ) ;
#245 = APPROVAL_STATUS ( 'not_yet_approved' ) ;
#246 = ORIENTED_EDGE ( 'NONE', *, *, #25, .F. ) ;
#247 = ADVANCED_FACE ( 'NONE', ( #275 ), #206, .T. ) ;
#248 = DIRECTION ( 'NONE',  ( 0.000000000000000000, 0.000000000000000000, 1.000000000000000000 ) ) ;
#249 = ADVANCED_BREP_SHAPE_REPRESENTATION ( 'A9_48', ( #204, #82 ), #30 ) ;
#250 = SECURITY_CLASSIFICATION ( '', '', #22 ) ;
#251 = CARTESIAN_POINT ( 'NONE',  ( 2.969768487932331681E-15, 20.00000000000000000, 24.25000000000000000 ) ) ;
#252 = AXIS2_PLACEMENT_3D ( 'NONE', #116, #188, #209 ) ;
#253 = DIRECTION ( 'NONE',  ( 1.000000000000000000, 0.000000000000000000, 0.000000000000000000 ) ) ;
#254 = LINE ( 'NONE', #251, #180 ) ;
#255 = ORIENTED_EDGE ( 'NONE', *, *, #48, .F. ) ;
#256 = ORIENTED_EDGE ( 'NONE', *, *, #135, .F. ) ;
#257 = CARTESIAN_POINT ( 'NONE',  ( 0.000000000000000000, 7.080729273062618567, 0.000000000000000000 ) ) ;
#258 =( LENGTH_UNIT ( ) NAMED_UNIT ( * ) SI_UNIT ( .MILLI., .METRE. ) );
#259 = VERTEX_POINT ( 'NONE', #244 ) ;
#260 = PERSON_AND_ORGANIZATION ( #117, #155 ) ;
#261 = CIRCLE ( 'NONE', #176, 24.25000000000000000 ) ;
#262 = APPROVAL_STATUS ( 'not_yet_approved' ) ;
#263 = CC_DESIGN_PERSON_AND_ORGANIZATION_ASSIGNMENT ( #41, #129, ( #172 ) ) ;
#264 = DIRECTION ( 'NONE',  ( 0.000000000000000000, 0.000000000000000000, -1.000000000000000000 ) ) ;
#265 = LOCAL_TIME ( 15, 2, 43.00000000000000000, #2 ) ;
#266 = APPROVAL_ROLE ( '' ) ;
#267 = PERSON_AND_ORGANIZATION ( #117, #155 ) ;
#268 = ADVANCED_FACE ( 'NONE', ( #220 ), #57, .F. ) ;
#269 = CARTESIAN_POINT ( 'NONE',  ( 0.000000000000000000, 20.00000000000000000, -24.25000000000000000 ) ) ;
#270 = DIRECTION ( 'NONE',  ( -1.000000000000000000, 0.000000000000000000, -1.224646799147353207E-16 ) ) ;
#271 = CIRCLE ( 'NONE', #216, 24.25000000000000000 ) ;
#272 = FACE_OUTER_BOUND ( 'NONE', #218, .T. ) ;
#273 = EDGE_CURVE ( 'NONE', #35, #4, #271, .T. ) ;
#274 = CARTESIAN_POINT ( 'NONE',  ( 0.000000000000000000, 10.08296159389321289, 0.000000000000000000 ) ) ;
#275 = FACE_OUTER_BOUND ( 'NONE', #127, .T. ) ;
#276 = CARTESIAN_POINT ( 'NONE',  ( 1.836970198721029589E-15, 54.08072927306262301, 0.000000000000000000 ) ) ;
#277 = APPROVAL_PERSON_ORGANIZATION ( #198, #7, #151 ) ;
ENDSEC;
END-ISO-10303-21;
