ISO-10303-21;
HEADER;
FILE_DESCRIPTION (( 'STEP AP203' ),
    '1' );
FILE_NAME ('A14_7350-003.STEP',
    '2022-10-27T10:09:56',
    ( '' ),
    ( '' ),
    'SwSTEP 2.0',
    'SolidWorks 2019',
    '' );
FILE_SCHEMA (( 'CONFIG_CONTROL_DESIGN' ));
ENDSEC;

DATA;
#1 = FACE_OUTER_BOUND ( 'NONE', #51, .T. ) ;
#2 = AXIS2_PLACEMENT_3D ( 'NONE', #108, #229, #353 ) ;
#3 = AXIS2_PLACEMENT_3D ( 'NONE', #148, #30, #174 ) ;
#4 = CARTESIAN_POINT ( 'NONE',  ( 0.000000000000000000, 0.000000000000000000, 0.000000000000000000 ) ) ;
#5 = CLOSED_SHELL ( 'NONE', ( #354, #70, #6, #49, #89, #217, #205, #192, #302, #55, #25 ) ) ;
#6 = ADVANCED_FACE ( 'NONE', ( #391 ), #235, .T. ) ;
#7 = ORIENTED_EDGE ( 'NONE', *, *, #115, .F. ) ;
#8 = ORGANIZATION ( 'NEURÈENÝ', 'NEURÈENÝ', '' ) ;
#9 = ORIENTED_EDGE ( 'NONE', *, *, #119, .T. ) ;
#10 = DIRECTION ( 'NONE',  ( 0.000000000000000000, 1.000000000000000000, 0.000000000000000000 ) ) ;
#11 = ORIENTED_EDGE ( 'NONE', *, *, #159, .T. ) ;
#12 = EDGE_CURVE ( 'NONE', #182, #224, #239, .T. ) ;
#13 = CARTESIAN_POINT ( 'NONE',  ( -2.999999999999999556, 3.250000000000000444, 0.000000000000000000 ) ) ;
#14 = ORIENTED_EDGE ( 'NONE', *, *, #306, .F. ) ;
#15 = CARTESIAN_POINT ( 'NONE',  ( 0.000000000000000000, 5.196152422706631135, 0.000000000000000000 ) ) ;
#16 = LOCAL_TIME ( 12, 9, 56.00000000000000000, #249 ) ;
#17 = ORIENTED_EDGE ( 'NONE', *, *, #130, .F. ) ;
#18 = APPROVAL_DATE_TIME ( #194, #144 ) ;
#19 = EDGE_LOOP ( 'NONE', ( #158, #312, #263, #350 ) ) ;
#20 = DIRECTION ( 'NONE',  ( 0.000000000000000000, 0.000000000000000000, -1.000000000000000000 ) ) ;
#21 = CC_DESIGN_DATE_AND_TIME_ASSIGNMENT ( #190, #325, ( #271 ) ) ;
#22 = AXIS2_PLACEMENT_3D ( 'NONE', #384, #199, #226 ) ;
#23 = DIRECTION ( 'NONE',  ( 0.000000000000000000, 1.000000000000000000, 0.000000000000000000 ) ) ;
#24 = CARTESIAN_POINT ( 'NONE',  ( -6.999999999999996447, 6.581823910371499858E-16, 0.000000000000000000 ) ) ;
#25 = ADVANCED_FACE ( 'NONE', ( #231 ), #38, .T. ) ;
#26 = PERSON_AND_ORGANIZATION ( #352, #8 ) ;
#27 = LOCAL_TIME ( 12, 9, 56.00000000000000000, #268 ) ;
#28 = DIRECTION ( 'NONE',  ( 0.000000000000000000, 0.000000000000000000, -1.000000000000000000 ) ) ;
#29 = DIRECTION ( 'NONE',  ( -0.000000000000000000, -1.000000000000000000, -0.000000000000000000 ) ) ;
#30 = DIRECTION ( 'NONE',  ( -1.000000000000000000, -9.402605586245004552E-17, -0.000000000000000000 ) ) ;
#31 = DIRECTION ( 'NONE',  ( 0.000000000000000000, 0.000000000000000000, 1.000000000000000000 ) ) ;
#32 = CC_DESIGN_PERSON_AND_ORGANIZATION_ASSIGNMENT ( #355, #78, ( #47 ) ) ;
#33 = PLANE ( 'NONE',  #349 ) ;
#34 = CARTESIAN_POINT ( 'NONE',  ( 3.000000000000002665, -5.196152422706631135, 0.000000000000000000 ) ) ;
#35 =( NAMED_UNIT ( * ) SI_UNIT ( $, .STERADIAN. ) SOLID_ANGLE_UNIT ( ) );
#36 = AXIS2_PLACEMENT_3D ( 'NONE', #213, #254, #40 ) ;
#37 = DIRECTION ( 'NONE',  ( 1.000000000000000000, 0.000000000000000000, 0.000000000000000000 ) ) ;
#38 = CONICAL_SURFACE ( 'NONE', #262, 2.499999999999998668, 0.7853981633974491672 ) ;
#39 = ORIENTED_EDGE ( 'NONE', *, *, #177, .F. ) ;
#40 = DIRECTION ( 'NONE',  ( 0.000000000000000000, 0.000000000000000000, -1.000000000000000000 ) ) ;
#41 = AXIS2_PLACEMENT_3D ( 'NONE', #343, #131, #309 ) ;
#42 = PERSON_AND_ORGANIZATION ( #352, #8 ) ;
#43 = ORIENTED_EDGE ( 'NONE', *, *, #290, .F. ) ;
#44 = AXIS2_PLACEMENT_3D ( 'NONE', #298, #195, #322 ) ;
#45 = ORIENTED_EDGE ( 'NONE', *, *, #12, .F. ) ;
#46 = PERSON_AND_ORGANIZATION ( #352, #8 ) ;
#47 = PRODUCT_DEFINITION_FORMATION_WITH_SPECIFIED_SOURCE ( 'LIBOVOLNÝ', '', #196, .NOT_KNOWN. ) ;
#48 = ORIENTED_EDGE ( 'NONE', *, *, #371, .F. ) ;
#49 = ADVANCED_FACE ( 'NONE', ( #143 ), #141, .T. ) ;
#50 = DATE_AND_TIME ( #198, #97 ) ;
#51 = EDGE_LOOP ( 'NONE', ( #284, #84, #221, #53, #219 ) ) ;
#52 = APPROVAL_ROLE ( '' ) ;
#53 = ORIENTED_EDGE ( 'NONE', *, *, #12, .T. ) ;
#54 = ORIENTED_EDGE ( 'NONE', *, *, #179, .T. ) ;
#55 = ADVANCED_FACE ( 'NONE', ( #193 ), #382, .F. ) ;
#56 = APPROVAL_STATUS ( 'not_yet_approved' ) ;
#57 = LINE ( 'NONE', #81, #329 ) ;
#58 = APPROVAL_PERSON_ORGANIZATION ( #161, #340, #52 ) ;
#59 = FACE_OUTER_BOUND ( 'NONE', #164, .T. ) ;
#60 = CIRCLE ( 'NONE', #68, 5.196152422706633800 ) ;
#61 = DIRECTION ( 'NONE',  ( 1.000000000000000000, -9.402605586245004552E-17, 0.000000000000000000 ) ) ;
#62 = DIRECTION ( 'NONE',  ( -1.000000000000000000, -9.402605586245004552E-17, -0.000000000000000000 ) ) ;
#63 = DIRECTION ( 'NONE',  ( 1.334402673828313339E-16, -1.000000000000000000, 0.000000000000000000 ) ) ;
#64 = CARTESIAN_POINT ( 'NONE',  ( 0.000000000000000000, 21.25000000000000000, 0.000000000000000000 ) ) ;
#65 = EDGE_CURVE ( 'NONE', #316, #182, #150, .T. ) ;
#66 = ORIENTED_EDGE ( 'NONE', *, *, #177, .T. ) ;
#67 =( LENGTH_UNIT ( ) NAMED_UNIT ( * ) SI_UNIT ( .MILLI., .METRE. ) );
#68 = AXIS2_PLACEMENT_3D ( 'NONE', #307, #363, #91 ) ;
#69 = ORIENTED_EDGE ( 'NONE', *, *, #396, .F. ) ;
#70 = ADVANCED_FACE ( 'NONE', ( #294 ), #273, .F. ) ;
#71 = ORIENTED_EDGE ( 'NONE', *, *, #297, .F. ) ;
#72 = ORIENTED_EDGE ( 'NONE', *, *, #331, .T. ) ;
#73 = AXIS2_PLACEMENT_3D ( 'NONE', #96, #332, #395 ) ;
#74 = DATE_AND_TIME ( #83, #27 ) ;
#75 = ORIENTED_EDGE ( 'NONE', *, *, #371, .T. ) ;
#76 = AXIS2_PLACEMENT_3D ( 'NONE', #334, #278, #397 ) ;
#77 = PRODUCT_RELATED_PRODUCT_CATEGORY ( 'detail', '', ( #196 ) ) ;
#78 = PERSON_AND_ORGANIZATION_ROLE ( 'creator' ) ;
#79 = DIRECTION ( 'NONE',  ( 0.000000000000000000, 0.000000000000000000, -1.000000000000000000 ) ) ;
#80 = PERSON_AND_ORGANIZATION ( #352, #8 ) ;
#81 = CARTESIAN_POINT ( 'NONE',  ( -6.999999999999996447, 3.250000000000000444, 0.000000000000000000 ) ) ;
#82 = APPLICATION_CONTEXT ( 'configuration controlled 3d designs of mechanical parts and assemblies' ) ;
#83 = CALENDAR_DATE ( 2022, 27, 10 ) ;
#84 = ORIENTED_EDGE ( 'NONE', *, *, #317, .T. ) ;
#85 = CARTESIAN_POINT ( 'NONE',  ( -2.999999999999998668, -3.249999999999999112, 3.980102097228897245E-16 ) ) ;
#86 = ORIENTED_EDGE ( 'NONE', *, *, #233, .F. ) ;
#87 = CARTESIAN_POINT ( 'NONE',  ( 3.673940397442063812E-16, 21.25000000000000000, 3.000000000000003553 ) ) ;
#88 = CIRCLE ( 'NONE', #188, 5.196152422706633800 ) ;
#89 = ADVANCED_FACE ( 'NONE', ( #59 ), #169, .T. ) ;
#90 = AXIS2_PLACEMENT_3D ( 'NONE', #175, #93, #31 ) ;
#91 = DIRECTION ( 'NONE',  ( 8.346192215206437145E-17, -1.000000000000000000, 0.000000000000000000 ) ) ;
#92 = CIRCLE ( 'NONE', #138, 6.000000000000000888 ) ;
#93 = DIRECTION ( 'NONE',  ( 0.000000000000000000, 1.000000000000000000, 0.000000000000000000 ) ) ;
#94 = FACE_OUTER_BOUND ( 'NONE', #129, .T. ) ;
#95 = EDGE_CURVE ( 'NONE', #127, #316, #207, .T. ) ;
#96 = CARTESIAN_POINT ( 'NONE',  ( -3.000000000000000444, 11.75621551539904708, 10.00000000000000000 ) ) ;
#97 = LOCAL_TIME ( 12, 9, 56.00000000000000000, #348 ) ;
#98 = UNCERTAINTY_MEASURE_WITH_UNIT (LENGTH_MEASURE( 1.000000000000000082E-05 ), #67, 'distance_accuracy_value', 'NONE');
#99 = ORIENTED_EDGE ( 'NONE', *, *, #359, .F. ) ;
#100 = CARTESIAN_POINT ( 'NONE',  ( 0.000000000000000000, 20.74999999999999645, 0.000000000000000000 ) ) ;
#101 = EDGE_LOOP ( 'NONE', ( #104, #255, #328, #247 ) ) ;
#102 = DIRECTION ( 'NONE',  ( 0.000000000000000000, 0.000000000000000000, 1.000000000000000000 ) ) ;
#103 = ORIENTED_EDGE ( 'NONE', *, *, #212, .T. ) ;
#104 = ORIENTED_EDGE ( 'NONE', *, *, #119, .F. ) ;
#105 = AXIS2_PLACEMENT_3D ( 'NONE', #149, #364, #63 ) ;
#106 = AXIS2_PLACEMENT_3D ( 'NONE', #291, #23, #357 ) ;
#107 = DIRECTION ( 'NONE',  ( 0.000000000000000000, 0.000000000000000000, -1.000000000000000000 ) ) ;
#108 = CARTESIAN_POINT ( 'NONE',  ( 3.000000000000003553, -2.820781675873504940E-16, 0.000000000000000000 ) ) ;
#109 = AXIS2_PLACEMENT_3D ( 'NONE', #180, #122, #281 ) ;
#110 = CARTESIAN_POINT ( 'NONE',  ( 0.000000000000000000, 21.25000000000000000, 0.000000000000000000 ) ) ;
#111 = DIRECTION ( 'NONE',  ( 0.000000000000000000, -1.000000000000000000, 0.000000000000000000 ) ) ;
#112 = CALENDAR_DATE ( 2022, 27, 10 ) ;
#113 = VERTEX_POINT ( 'NONE', #85 ) ;
#114 = CARTESIAN_POINT ( 'NONE',  ( 3.000000000000004885, 11.75621551539904708, 10.00000000000000000 ) ) ;
#115 = EDGE_CURVE ( 'NONE', #356, #125, #57, .T. ) ;
#116 = AXIS2_PLACEMENT_3D ( 'NONE', #341, #10, #288 ) ;
#117 = FACE_OUTER_BOUND ( 'NONE', #259, .T. ) ;
#118 = DIRECTION ( 'NONE',  ( 8.346192215206437145E-17, -1.000000000000000000, 0.000000000000000000 ) ) ;
#119 = EDGE_CURVE ( 'NONE', #113, #386, #166, .T. ) ;
#120 = FACE_BOUND ( 'NONE', #156, .T. ) ;
#121 = CARTESIAN_POINT ( 'NONE',  ( 3.673940397442063812E-16, 5.196152422706631135, 3.000000000000003553 ) ) ;
#122 = DIRECTION ( 'NONE',  ( 1.000000000000000000, -9.402605586245004552E-17, 0.000000000000000000 ) ) ;
#123 = ORIENTED_EDGE ( 'NONE', *, *, #317, .F. ) ;
#124 = APPROVAL_STATUS ( 'not_yet_approved' ) ;
#125 = VERTEX_POINT ( 'NONE', #301 ) ;
#126 = DIRECTION ( 'NONE',  ( -0.000000000000000000, -1.000000000000000000, -0.000000000000000000 ) ) ;
#127 = VERTEX_POINT ( 'NONE', #34 ) ;
#128 = DIRECTION ( 'NONE',  ( 0.000000000000000000, -1.000000000000000000, 0.000000000000000000 ) ) ;
#129 = EDGE_LOOP ( 'NONE', ( #54, #181 ) ) ;
#130 = EDGE_CURVE ( 'NONE', #113, #356, #223, .T. ) ;
#131 = DIRECTION ( 'NONE',  ( 0.000000000000000000, 1.000000000000000000, 0.000000000000000000 ) ) ;
#132 = VERTEX_POINT ( 'NONE', #337 ) ;
#133 = CARTESIAN_POINT ( 'NONE',  ( 0.000000000000000000, 0.000000000000000000, 0.000000000000000000 ) ) ;
#134 = CARTESIAN_POINT ( 'NONE',  ( 0.000000000000000000, 20.74999999999999645, 0.000000000000000000 ) ) ;
#135 = SECURITY_CLASSIFICATION_LEVEL ( 'unclassified' ) ;
#136 =( GEOMETRIC_REPRESENTATION_CONTEXT ( 3 ) GLOBAL_UNCERTAINTY_ASSIGNED_CONTEXT ( ( #98 ) ) GLOBAL_UNIT_ASSIGNED_CONTEXT ( ( #67, #345, #35 ) ) REPRESENTATION_CONTEXT ( 'NONE', 'WORKASPACE' ) );
#137 = DIRECTION ( 'NONE',  ( 1.000000000000000000, -9.402605586245004552E-17, -0.000000000000000000 ) ) ;
#138 = AXIS2_PLACEMENT_3D ( 'NONE', #257, #102, #313 ) ;
#139 = EDGE_CURVE ( 'NONE', #132, #346, #280, .T. ) ;
#140 = APPROVAL_DATE_TIME ( #74, #340 ) ;
#141 = SPHERICAL_SURFACE ( 'NONE', #209, 6.000000000000000888 ) ;
#142 = LOCAL_TIME ( 12, 9, 56.00000000000000000, #167 ) ;
#143 = FACE_OUTER_BOUND ( 'NONE', #314, .T. ) ;
#144 = APPROVAL ( #124, 'NEURÈENÝ' ) ;
#145 = DIRECTION ( 'NONE',  ( 0.000000000000000000, -0.7071067811865469066, -0.7071067811865482389 ) ) ;
#146 = CARTESIAN_POINT ( 'NONE',  ( 3.673940397442060361E-16, -6.000000000000000888, 0.000000000000000000 ) ) ;
#147 = DIRECTION ( 'NONE',  ( 1.334402673828313339E-16, 1.000000000000000000, 0.000000000000000000 ) ) ;
#148 = CARTESIAN_POINT ( 'NONE',  ( -2.999999999999999112, 2.820781675873500996E-16, 0.000000000000000000 ) ) ;
#149 = CARTESIAN_POINT ( 'NONE',  ( -2.999999999999999112, 2.820781675873500996E-16, 0.000000000000000000 ) ) ;
#150 = CIRCLE ( 'NONE', #315, 3.000000000000003553 ) ;
#151 = DIRECTION ( 'NONE',  ( 0.000000000000000000, -1.000000000000000000, 0.000000000000000000 ) ) ;
#152 = APPLICATION_PROTOCOL_DEFINITION ( 'international standard', 'config_control_design', 1994, #82 ) ;
#153 = CC_DESIGN_PERSON_AND_ORGANIZATION_ASSIGNMENT ( #80, #266, ( #271 ) ) ;
#154 = CC_DESIGN_APPROVAL ( #144, ( #390 ) ) ;
#155 = CIRCLE ( 'NONE', #385, 3.000000000000003553 ) ;
#156 = EDGE_LOOP ( 'NONE', ( #86, #17 ) ) ;
#157 = APPROVAL_ROLE ( '' ) ;
#158 = ORIENTED_EDGE ( 'NONE', *, *, #253, .F. ) ;
#159 = EDGE_CURVE ( 'NONE', #346, #160, #204, .T. ) ;
#160 = VERTEX_POINT ( 'NONE', #121 ) ;
#161 = PERSON_AND_ORGANIZATION ( #352, #8 ) ;
#162 = ORIENTED_EDGE ( 'NONE', *, *, #290, .T. ) ;
#163 = CALENDAR_DATE ( 2022, 27, 10 ) ;
#164 = EDGE_LOOP ( 'NONE', ( #71, #339, #43, #48, #168, #14 ) ) ;
#165 = AXIS2_PLACEMENT_3D ( 'NONE', #134, #128, #377 ) ;
#166 = LINE ( 'NONE', #296, #186 ) ;
#167 = COORDINATED_UNIVERSAL_TIME_OFFSET ( 1, 0, .AHEAD. ) ;
#168 = ORIENTED_EDGE ( 'NONE', *, *, #376, .F. ) ;
#169 = SPHERICAL_SURFACE ( 'NONE', #270, 6.000000000000000888 ) ;
#170 = CIRCLE ( 'NONE', #3, 3.249999999999999556 ) ;
#171 = DIRECTION ( 'NONE',  ( 8.659560562354941486E-17, -0.7071067811865469066, 0.7071067811865482389 ) ) ;
#172 = MANIFOLD_SOLID_BREP ( 'Zkosení2', #5 ) ;
#173 = AXIS2_PLACEMENT_3D ( 'NONE', #4, #246, #37 ) ;
#174 = DIRECTION ( 'NONE',  ( 1.334402673828313339E-16, -1.000000000000000000, 0.000000000000000000 ) ) ;
#175 = CARTESIAN_POINT ( 'NONE',  ( 0.000000000000000000, 21.25000000000000000, 0.000000000000000000 ) ) ;
#176 = CYLINDRICAL_SURFACE ( 'NONE', #225, 3.000000000000003553 ) ;
#177 = EDGE_CURVE ( 'NONE', #386, #125, #261, .T. ) ;
#178 = DIRECTION ( 'NONE',  ( 0.000000000000000000, -0.000000000000000000, 1.000000000000000000 ) ) ;
#179 = EDGE_CURVE ( 'NONE', #224, #252, #88, .T. ) ;
#180 = CARTESIAN_POINT ( 'NONE',  ( 3.000000000000003553, -2.820781675873504940E-16, 0.000000000000000000 ) ) ;
#181 = ORIENTED_EDGE ( 'NONE', *, *, #306, .T. ) ;
#182 = VERTEX_POINT ( 'NONE', #241 ) ;
#183 = CARTESIAN_POINT ( 'NONE',  ( 3.000000000000003553, 5.196152422706631135, 0.000000000000000000 ) ) ;
#184 = ORIENTED_EDGE ( 'NONE', *, *, #179, .F. ) ;
#185 = PERSON_AND_ORGANIZATION_ROLE ( 'design_owner' ) ;
#186 = VECTOR ( 'NONE', #137, 1000.000000000000000 ) ;
#187 = ORIENTED_EDGE ( 'NONE', *, *, #311, .F. ) ;
#188 = AXIS2_PLACEMENT_3D ( 'NONE', #244, #62, #118 ) ;
#189 = ORIENTED_EDGE ( 'NONE', *, *, #65, .F. ) ;
#190 = DATE_AND_TIME ( #163, #142 ) ;
#191 = DIRECTION ( 'NONE',  ( 1.000000000000000000, 0.000000000000000000, 0.000000000000000000 ) ) ;
#192 = ADVANCED_FACE ( 'NONE', ( #1 ), #176, .T. ) ;
#193 = FACE_OUTER_BOUND ( 'NONE', #101, .T. ) ;
#194 = DATE_AND_TIME ( #372, #16 ) ;
#195 = DIRECTION ( 'NONE',  ( 1.000000000000000000, -9.402605586245004552E-17, -0.000000000000000000 ) ) ;
#196 = PRODUCT ( 'A14_7350-003', 'A14_7350-003', '', ( #308 ) ) ;
#197 = VECTOR ( 'NONE', #126, 1000.000000000000000 ) ;
#198 = CALENDAR_DATE ( 2022, 27, 10 ) ;
#199 = DIRECTION ( 'NONE',  ( -0.000000000000000000, -1.000000000000000000, -0.000000000000000000 ) ) ;
#200 = CC_DESIGN_PERSON_AND_ORGANIZATION_ASSIGNMENT ( #272, #230, ( #47 ) ) ;
#201 = CONICAL_SURFACE ( 'NONE', #36, 2.499999999999998668, 0.7853981633974491672 ) ;
#202 = VECTOR ( 'NONE', #171, 999.9999999999998863 ) ;
#203 = DIRECTION ( 'NONE',  ( -0.000000000000000000, -1.000000000000000000, -0.000000000000000000 ) ) ;
#204 = LINE ( 'NONE', #87, #245 ) ;
#205 = ADVANCED_FACE ( 'NONE', ( #120, #94 ), #206, .T. ) ;
#206 = PLANE ( 'NONE',  #73 ) ;
#207 = CIRCLE ( 'NONE', #2, 5.196152422706631135 ) ;
#208 = DIRECTION ( 'NONE',  ( 1.224646799147353207E-16, 0.000000000000000000, -1.000000000000000000 ) ) ;
#209 = AXIS2_PLACEMENT_3D ( 'NONE', #267, #107, #327 ) ;
#210 = CIRCLE ( 'NONE', #90, 2.499999999999998668 ) ;
#211 = CARTESIAN_POINT ( 'NONE',  ( 0.000000000000000000, 21.25000000000000000, -2.499999999999998668 ) ) ;
#212 = EDGE_CURVE ( 'NONE', #310, #216, #368, .T. ) ;
#213 = CARTESIAN_POINT ( 'NONE',  ( 0.000000000000000000, 21.25000000000000000, 0.000000000000000000 ) ) ;
#214 = EDGE_LOOP ( 'NONE', ( #162, #375 ) ) ;
#215 = APPLICATION_PROTOCOL_DEFINITION ( 'international standard', 'config_control_design', 1994, #236 ) ;
#216 = VERTEX_POINT ( 'NONE', #274 ) ;
#217 = ADVANCED_FACE ( 'NONE', ( #304, #393 ), #33, .T. ) ;
#218 = FACE_OUTER_BOUND ( 'NONE', #19, .T. ) ;
#219 = ORIENTED_EDGE ( 'NONE', *, *, #376, .T. ) ;
#220 = CARTESIAN_POINT ( 'NONE',  ( 3.000000000000003109, -3.250000000000000444, 3.980102097228898231E-16 ) ) ;
#221 = ORIENTED_EDGE ( 'NONE', *, *, #311, .T. ) ;
#222 = CARTESIAN_POINT ( 'NONE',  ( 0.000000000000000000, 21.25000000000000000, -3.000000000000003553 ) ) ;
#223 = CIRCLE ( 'NONE', #105, 3.249999999999999556 ) ;
#224 = VERTEX_POINT ( 'NONE', #237 ) ;
#225 = AXIS2_PLACEMENT_3D ( 'NONE', #277, #203, #333 ) ;
#226 = DIRECTION ( 'NONE',  ( 0.000000000000000000, 0.000000000000000000, -1.000000000000000000 ) ) ;
#227 = CC_DESIGN_DATE_AND_TIME_ASSIGNMENT ( #318, #295, ( #390 ) ) ;
#228 = APPROVAL_PERSON_ORGANIZATION ( #282, #144, #157 ) ;
#229 = DIRECTION ( 'NONE',  ( 1.000000000000000000, -9.402605586245004552E-17, 0.000000000000000000 ) ) ;
#230 = PERSON_AND_ORGANIZATION_ROLE ( 'design_supplier' ) ;
#231 = FACE_OUTER_BOUND ( 'NONE', #342, .T. ) ;
#232 = APPROVAL_DATE_TIME ( #50, #279 ) ;
#233 = EDGE_CURVE ( 'NONE', #356, #113, #170, .T. ) ;
#234 = DIRECTION ( 'NONE',  ( 0.000000000000000000, 1.000000000000000000, 0.000000000000000000 ) ) ;
#235 = CYLINDRICAL_SURFACE ( 'NONE', #22, 3.000000000000003553 ) ;
#236 = APPLICATION_CONTEXT ( 'configuration controlled 3d designs of mechanical parts and assemblies' ) ;
#237 = CARTESIAN_POINT ( 'NONE',  ( -2.999999999999999112, 5.196152422706633800, 0.000000000000000000 ) ) ;
#238 = DIRECTION ( 'NONE',  ( 0.000000000000000000, 1.000000000000000000, 0.000000000000000000 ) ) ;
#239 = CIRCLE ( 'NONE', #106, 3.000000000000003553 ) ;
#240 = AXIS2_PLACEMENT_3D ( 'NONE', #275, #208, #394 ) ;
#241 = CARTESIAN_POINT ( 'NONE',  ( 0.000000000000000000, 5.196152422706631135, -3.000000000000003553 ) ) ;
#242 = DIRECTION ( 'NONE',  ( 9.402605586245004552E-17, 1.000000000000000000, 0.000000000000000000 ) ) ;
#243 = CC_DESIGN_APPROVAL ( #340, ( #271 ) ) ;
#244 = CARTESIAN_POINT ( 'NONE',  ( -2.999999999999999112, -2.820781675873500503E-16, 0.000000000000000000 ) ) ;
#245 = VECTOR ( 'NONE', #29, 1000.000000000000000 ) ;
#246 = DIRECTION ( 'NONE',  ( 0.000000000000000000, 0.000000000000000000, 1.000000000000000000 ) ) ;
#247 = ORIENTED_EDGE ( 'NONE', *, *, #359, .T. ) ;
#248 = APPROVAL_PERSON_ORGANIZATION ( #46, #279, #387 ) ;
#249 = COORDINATED_UNIVERSAL_TIME_OFFSET ( 1, 0, .AHEAD. ) ;
#250 = ORIENTED_EDGE ( 'NONE', *, *, #139, .F. ) ;
#251 = CARTESIAN_POINT ( 'NONE',  ( 3.673940397442063812E-16, 20.74999999999999645, 3.000000000000003553 ) ) ;
#252 = VERTEX_POINT ( 'NONE', #303 ) ;
#253 = EDGE_CURVE ( 'NONE', #132, #310, #210, .T. ) ;
#254 = DIRECTION ( 'NONE',  ( 0.000000000000000000, -1.000000000000000000, 0.000000000000000000 ) ) ;
#255 = ORIENTED_EDGE ( 'NONE', *, *, #130, .T. ) ;
#256 = ADVANCED_BREP_SHAPE_REPRESENTATION ( 'A14_7350-003', ( #172, #173 ), #136 ) ;
#257 = CARTESIAN_POINT ( 'NONE',  ( 0.000000000000000000, 0.000000000000000000, 0.000000000000000000 ) ) ;
#258 = EDGE_LOOP ( 'NONE', ( #378, #9, #66, #7 ) ) ;
#259 = EDGE_LOOP ( 'NONE', ( #283, #380 ) ) ;
#260 = CC_DESIGN_PERSON_AND_ORGANIZATION_ASSIGNMENT ( #26, #321, ( #390 ) ) ;
#261 = CIRCLE ( 'NONE', #330, 3.249999999999999556 ) ;
#262 = AXIS2_PLACEMENT_3D ( 'NONE', #110, #111, #28 ) ;
#263 = ORIENTED_EDGE ( 'NONE', *, *, #331, .F. ) ;
#264 = CC_DESIGN_APPROVAL ( #279, ( #47 ) ) ;
#265 = CIRCLE ( 'NONE', #41, 3.000000000000003553 ) ;
#266 = PERSON_AND_ORGANIZATION_ROLE ( 'classification_officer' ) ;
#267 = CARTESIAN_POINT ( 'NONE',  ( 0.000000000000000000, 0.000000000000000000, 0.000000000000000000 ) ) ;
#268 = COORDINATED_UNIVERSAL_TIME_OFFSET ( 1, 0, .AHEAD. ) ;
#269 = VERTEX_POINT ( 'NONE', #146 ) ;
#270 = AXIS2_PLACEMENT_3D ( 'NONE', #133, #20, #191 ) ;
#271 = SECURITY_CLASSIFICATION ( '', '', #135 ) ;
#272 = PERSON_AND_ORGANIZATION ( #352, #8 ) ;
#273 = CYLINDRICAL_SURFACE ( 'NONE', #367, 3.249999999999999556 ) ;
#274 = CARTESIAN_POINT ( 'NONE',  ( 0.000000000000000000, 20.74999999999999645, -3.000000000000003553 ) ) ;
#275 = CARTESIAN_POINT ( 'NONE',  ( 0.000000000000000000, 0.000000000000000000, 0.000000000000000000 ) ) ;
#276 = CIRCLE ( 'NONE', #165, 3.000000000000003553 ) ;
#277 = CARTESIAN_POINT ( 'NONE',  ( 0.000000000000000000, 21.25000000000000000, 0.000000000000000000 ) ) ;
#278 = DIRECTION ( 'NONE',  ( 1.000000000000000000, -9.402605586245004552E-17, 0.000000000000000000 ) ) ;
#279 = APPROVAL ( #56, 'NEURÈENÝ' ) ;
#280 = LINE ( 'NONE', #362, #202 ) ;
#281 = DIRECTION ( 'NONE',  ( 1.334402673828313339E-16, 1.000000000000000000, 0.000000000000000000 ) ) ;
#282 = PERSON_AND_ORGANIZATION ( #352, #8 ) ;
#283 = ORIENTED_EDGE ( 'NONE', *, *, #347, .T. ) ;
#284 = ORIENTED_EDGE ( 'NONE', *, *, #159, .F. ) ;
#285 = CC_DESIGN_PERSON_AND_ORGANIZATION_ASSIGNMENT ( #42, #185, ( #196 ) ) ;
#286 = CARTESIAN_POINT ( 'NONE',  ( 0.000000000000000000, 21.25000000000000000, -2.499999999999998668 ) ) ;
#287 = CIRCLE ( 'NONE', #76, 5.196152422706631135 ) ;
#288 = DIRECTION ( 'NONE',  ( 0.000000000000000000, 0.000000000000000000, 1.000000000000000000 ) ) ;
#289 = EDGE_LOOP ( 'NONE', ( #99, #39 ) ) ;
#290 = EDGE_CURVE ( 'NONE', #316, #127, #287, .T. ) ;
#291 = CARTESIAN_POINT ( 'NONE',  ( 0.000000000000000000, 5.196152422706631135, 0.000000000000000000 ) ) ;
#292 = AXIS2_PLACEMENT_3D ( 'NONE', #100, #151, #374 ) ;
#293 = SHAPE_DEFINITION_REPRESENTATION ( #360, #256 ) ;
#294 = FACE_OUTER_BOUND ( 'NONE', #258, .T. ) ;
#295 = DATE_TIME_ROLE ( 'creation_date' ) ;
#296 = CARTESIAN_POINT ( 'NONE',  ( -6.999999999999996447, -3.249999999999998668, 3.980102097228897245E-16 ) ) ;
#297 = EDGE_CURVE ( 'NONE', #269, #252, #389, .T. ) ;
#298 = CARTESIAN_POINT ( 'NONE',  ( -6.999999999999996447, 6.581823910371499858E-16, 0.000000000000000000 ) ) ;
#299 = DIRECTION ( 'NONE',  ( 1.000000000000000000, -9.402605586245004552E-17, -0.000000000000000000 ) ) ;
#300 = VECTOR ( 'NONE', #145, 999.9999999999998863 ) ;
#301 = CARTESIAN_POINT ( 'NONE',  ( 3.000000000000003997, 3.249999999999999112, 0.000000000000000000 ) ) ;
#302 = ADVANCED_FACE ( 'NONE', ( #117 ), #335, .T. ) ;
#303 = CARTESIAN_POINT ( 'NONE',  ( -2.999999999999998224, -5.196152422706633800, -3.673940397442057896E-16 ) ) ;
#304 = FACE_BOUND ( 'NONE', #289, .T. ) ;
#305 = CARTESIAN_POINT ( 'NONE',  ( 3.000000000000003553, -2.820781675873504940E-16, 0.000000000000000000 ) ) ;
#306 = EDGE_CURVE ( 'NONE', #252, #224, #60, .T. ) ;
#307 = CARTESIAN_POINT ( 'NONE',  ( -2.999999999999999112, -2.820781675873500503E-16, 0.000000000000000000 ) ) ;
#308 = MECHANICAL_CONTEXT ( 'NONE', #236, 'mechanical' ) ;
#309 = DIRECTION ( 'NONE',  ( 0.000000000000000000, 0.000000000000000000, -1.000000000000000000 ) ) ;
#310 = VERTEX_POINT ( 'NONE', #286 ) ;
#311 = EDGE_CURVE ( 'NONE', #216, #182, #338, .T. ) ;
#312 = ORIENTED_EDGE ( 'NONE', *, *, #139, .T. ) ;
#313 = DIRECTION ( 'NONE',  ( 1.000000000000000000, 0.000000000000000000, 0.000000000000000000 ) ) ;
#314 = EDGE_LOOP ( 'NONE', ( #69, #324, #184, #45, #189, #373 ) ) ;
#315 = AXIS2_PLACEMENT_3D ( 'NONE', #358, #326, #79 ) ;
#316 = VERTEX_POINT ( 'NONE', #183 ) ;
#317 = EDGE_CURVE ( 'NONE', #346, #216, #276, .T. ) ;
#318 = DATE_AND_TIME ( #112, #392 ) ;
#319 = ORIENTED_EDGE ( 'NONE', *, *, #65, .T. ) ;
#320 = CC_DESIGN_SECURITY_CLASSIFICATION ( #271, ( #47 ) ) ;
#321 = PERSON_AND_ORGANIZATION_ROLE ( 'creator' ) ;
#322 = DIRECTION ( 'NONE',  ( 0.000000000000000000, 1.000000000000000000, 0.000000000000000000 ) ) ;
#323 = CIRCLE ( 'NONE', #116, 2.499999999999998668 ) ;
#324 = ORIENTED_EDGE ( 'NONE', *, *, #297, .T. ) ;
#325 = DATE_TIME_ROLE ( 'classification_date' ) ;
#326 = DIRECTION ( 'NONE',  ( 0.000000000000000000, 1.000000000000000000, 0.000000000000000000 ) ) ;
#327 = DIRECTION ( 'NONE',  ( 1.000000000000000000, 0.000000000000000000, 0.000000000000000000 ) ) ;
#328 = ORIENTED_EDGE ( 'NONE', *, *, #115, .T. ) ;
#329 = VECTOR ( 'NONE', #299, 1000.000000000000000 ) ;
#330 = AXIS2_PLACEMENT_3D ( 'NONE', #305, #366, #147 ) ;
#331 = EDGE_CURVE ( 'NONE', #216, #346, #361, .T. ) ;
#332 = DIRECTION ( 'NONE',  ( -1.000000000000000000, -9.402605586245004552E-17, 0.000000000000000000 ) ) ;
#333 = DIRECTION ( 'NONE',  ( 0.000000000000000000, 0.000000000000000000, -1.000000000000000000 ) ) ;
#334 = CARTESIAN_POINT ( 'NONE',  ( 3.000000000000003553, -2.820781675873504940E-16, 0.000000000000000000 ) ) ;
#335 = PLANE ( 'NONE',  #336 ) ;
#336 = AXIS2_PLACEMENT_3D ( 'NONE', #64, #238, #178 ) ;
#337 = CARTESIAN_POINT ( 'NONE',  ( 3.367778697655222491E-16, 21.25000000000000000, 2.499999999999998668 ) ) ;
#338 = LINE ( 'NONE', #222, #197 ) ;
#339 = ORIENTED_EDGE ( 'NONE', *, *, #396, .T. ) ;
#340 = APPROVAL ( #383, 'NEURÈENÝ' ) ;
#341 = CARTESIAN_POINT ( 'NONE',  ( 0.000000000000000000, 21.25000000000000000, 0.000000000000000000 ) ) ;
#342 = EDGE_LOOP ( 'NONE', ( #250, #370, #103, #123 ) ) ;
#343 = CARTESIAN_POINT ( 'NONE',  ( 0.000000000000000000, 5.196152422706631135, 0.000000000000000000 ) ) ;
#344 = EDGE_LOOP ( 'NONE', ( #72, #11, #75, #319, #187 ) ) ;
#345 =( NAMED_UNIT ( * ) PLANE_ANGLE_UNIT ( ) SI_UNIT ( $, .RADIAN. ) );
#346 = VERTEX_POINT ( 'NONE', #251 ) ;
#347 = EDGE_CURVE ( 'NONE', #310, #132, #323, .T. ) ;
#348 = COORDINATED_UNIVERSAL_TIME_OFFSET ( 1, 0, .AHEAD. ) ;
#349 = AXIS2_PLACEMENT_3D ( 'NONE', #114, #61, #242 ) ;
#350 = ORIENTED_EDGE ( 'NONE', *, *, #212, .F. ) ;
#351 = COORDINATED_UNIVERSAL_TIME_OFFSET ( 1, 0, .AHEAD. ) ;
#352 = PERSON ( 'NEURÈENÝ', 'NEURÈENÝ', 'NEURÈENÝ', ('NEURÈENÝ'), ('NEURÈENÝ'), ('NEURÈENÝ') ) ;
#353 = DIRECTION ( 'NONE',  ( 8.346192215206442076E-17, 1.000000000000000000, 0.000000000000000000 ) ) ;
#354 = ADVANCED_FACE ( 'NONE', ( #218 ), #201, .T. ) ;
#355 = PERSON_AND_ORGANIZATION ( #352, #8 ) ;
#356 = VERTEX_POINT ( 'NONE', #13 ) ;
#357 = DIRECTION ( 'NONE',  ( 0.000000000000000000, 0.000000000000000000, -1.000000000000000000 ) ) ;
#358 = CARTESIAN_POINT ( 'NONE',  ( 0.000000000000000000, 5.196152422706631135, 0.000000000000000000 ) ) ;
#359 = EDGE_CURVE ( 'NONE', #125, #386, #381, .T. ) ;
#360 = PRODUCT_DEFINITION_SHAPE ( 'NONE', 'NONE',  #390 ) ;
#361 = CIRCLE ( 'NONE', #292, 3.000000000000003553 ) ;
#362 = CARTESIAN_POINT ( 'NONE',  ( 3.061616997868381662E-16, 21.25000000000000000, 2.499999999999998668 ) ) ;
#363 = DIRECTION ( 'NONE',  ( -1.000000000000000000, -9.402605586245004552E-17, -0.000000000000000000 ) ) ;
#364 = DIRECTION ( 'NONE',  ( -1.000000000000000000, -9.402605586245004552E-17, -0.000000000000000000 ) ) ;
#365 = DESIGN_CONTEXT ( 'detailed design', #82, 'design' ) ;
#366 = DIRECTION ( 'NONE',  ( 1.000000000000000000, -9.402605586245004552E-17, 0.000000000000000000 ) ) ;
#367 = AXIS2_PLACEMENT_3D ( 'NONE', #24, #388, #234 ) ;
#368 = LINE ( 'NONE', #211, #300 ) ;
#369 = DIRECTION ( 'NONE',  ( 0.000000000000000000, 0.000000000000000000, -1.000000000000000000 ) ) ;
#370 = ORIENTED_EDGE ( 'NONE', *, *, #347, .F. ) ;
#371 = EDGE_CURVE ( 'NONE', #160, #316, #155, .T. ) ;
#372 = CALENDAR_DATE ( 2022, 27, 10 ) ;
#373 = ORIENTED_EDGE ( 'NONE', *, *, #95, .F. ) ;
#374 = DIRECTION ( 'NONE',  ( 0.000000000000000000, 0.000000000000000000, 1.000000000000000000 ) ) ;
#375 = ORIENTED_EDGE ( 'NONE', *, *, #95, .T. ) ;
#376 = EDGE_CURVE ( 'NONE', #224, #160, #265, .T. ) ;
#377 = DIRECTION ( 'NONE',  ( 0.000000000000000000, 0.000000000000000000, 1.000000000000000000 ) ) ;
#378 = ORIENTED_EDGE ( 'NONE', *, *, #233, .T. ) ;
#379 = DIRECTION ( 'NONE',  ( 0.000000000000000000, 1.000000000000000000, 0.000000000000000000 ) ) ;
#380 = ORIENTED_EDGE ( 'NONE', *, *, #253, .T. ) ;
#381 = CIRCLE ( 'NONE', #109, 3.249999999999999556 ) ;
#382 = CYLINDRICAL_SURFACE ( 'NONE', #44, 3.249999999999999556 ) ;
#383 = APPROVAL_STATUS ( 'not_yet_approved' ) ;
#384 = CARTESIAN_POINT ( 'NONE',  ( 0.000000000000000000, 21.25000000000000000, 0.000000000000000000 ) ) ;
#385 = AXIS2_PLACEMENT_3D ( 'NONE', #15, #379, #369 ) ;
#386 = VERTEX_POINT ( 'NONE', #220 ) ;
#387 = APPROVAL_ROLE ( '' ) ;
#388 = DIRECTION ( 'NONE',  ( 1.000000000000000000, -9.402605586245004552E-17, -0.000000000000000000 ) ) ;
#389 = CIRCLE ( 'NONE', #240, 6.000000000000000888 ) ;
#390 = PRODUCT_DEFINITION ( 'NEZNÁMÝ', '', #47, #365 ) ;
#391 = FACE_OUTER_BOUND ( 'NONE', #344, .T. ) ;
#392 = LOCAL_TIME ( 12, 9, 56.00000000000000000, #351 ) ;
#393 = FACE_OUTER_BOUND ( 'NONE', #214, .T. ) ;
#394 = DIRECTION ( 'NONE',  ( -1.000000000000000000, 0.000000000000000000, -1.224646799147353207E-16 ) ) ;
#395 = DIRECTION ( 'NONE',  ( 9.402605586245004552E-17, -1.000000000000000000, 0.000000000000000000 ) ) ;
#396 = EDGE_CURVE ( 'NONE', #269, #127, #92, .T. ) ;
#397 = DIRECTION ( 'NONE',  ( 8.346192215206442076E-17, 1.000000000000000000, 0.000000000000000000 ) ) ;
ENDSEC;
END-ISO-10303-21;
