ISO-10303-21;
HEADER;
FILE_DESCRIPTION (( 'STEP AP203' ),
    '1' );
FILE_NAME ('A_0813-075-12Z.STEP',
    '2019-05-06T12:52:04',
    ( '' ),
    ( '' ),
    'SwSTEP 2.0',
    'SolidWorks 2013',
    '' );
FILE_SCHEMA (( 'CONFIG_CONTROL_DESIGN' ));
ENDSEC;

DATA;
#1 = CC_DESIGN_DATE_AND_TIME_ASSIGNMENT ( #17, #351, ( #183 ) ) ;
#2 = DIRECTION ( 'NONE',  ( -0.0000000000000000000, -0.0000000000000000000, -1.000000000000000000 ) ) ;
#3 = VECTOR ( 'NONE', #150, 1000.000000000000000 ) ;
#4 = ORIENTED_EDGE ( 'NONE', *, *, #22, .F. ) ;
#5 = ADVANCED_FACE ( 'NONE', ( #376 ), #122, .T. ) ;
#6 = CALENDAR_DATE ( 2019, 6, 5 ) ;
#7 = ORIENTED_EDGE ( 'NONE', *, *, #280, .F. ) ;
#8 = UNCERTAINTY_MEASURE_WITH_UNIT (LENGTH_MEASURE( 1.000000000000000100E-005 ), #255, 'distance_accuracy_value', 'NONE');
#9 = FACE_OUTER_BOUND ( 'NONE', #177, .T. ) ;
#10 = AXIS2_PLACEMENT_3D ( 'NONE', #295, #82, #385 ) ;
#11 = CIRCLE ( 'NONE', #235, 4.000000000000000000 ) ;
#12 = DIRECTION ( 'NONE',  ( 1.000000000000000000, 0.0000000000000000000, -0.0000000000000000000 ) ) ;
#13 = DIRECTION ( 'NONE',  ( -0.0000000000000000000, -0.0000000000000000000, 1.000000000000000000 ) ) ;
#14 = DIRECTION ( 'NONE',  ( -0.0000000000000000000, -0.0000000000000000000, -1.000000000000000000 ) ) ;
#15 = CC_DESIGN_APPROVAL ( #380, ( #183 ) ) ;
#16 = CARTESIAN_POINT ( 'NONE',  ( 6.000000000000005300, 7.347880794884125700E-016, 85.00000000000000000 ) ) ;
#17 = DATE_AND_TIME ( #234, #321 ) ;
#18 = EDGE_LOOP ( 'NONE', ( #106, #260, #35, #366 ) ) ;
#19 = DIRECTION ( 'NONE',  ( -0.0000000000000000000, -0.0000000000000000000, -1.000000000000000000 ) ) ;
#20 = PERSON_AND_ORGANIZATION_ROLE ( 'design_owner' ) ;
#21 = APPROVAL_ROLE ( '' ) ;
#22 = EDGE_CURVE ( 'NONE', #190, #182, #333, .T. ) ;
#23 = MECHANICAL_CONTEXT ( 'NONE', #201, 'mechanical' ) ;
#24 = VERTEX_POINT ( 'NONE', #319 ) ;
#25 = CARTESIAN_POINT ( 'NONE',  ( 3.400000000000000400, 4.163799117101001100E-016, 0.0000000000000000000 ) ) ;
#26 = PERSON_AND_ORGANIZATION ( #84, #66 ) ;
#27 = ORIENTED_EDGE ( 'NONE', *, *, #294, .F. ) ;
#28 = CARTESIAN_POINT ( 'NONE',  ( 3.000000000000002700, 3.673940397442062800E-016, 85.00000000000000000 ) ) ;
#29 = CARTESIAN_POINT ( 'NONE',  ( 0.0000000000000000000, 0.0000000000000000000, 85.00000000000000000 ) ) ;
#30 = FACE_OUTER_BOUND ( 'NONE', #118, .T. ) ;
#31 = EDGE_LOOP ( 'NONE', ( #4, #246, #205, #27 ) ) ;
#32 = CARTESIAN_POINT ( 'NONE',  ( 0.0000000000000000000, 0.0000000000000000000, 84.00000000000000000 ) ) ;
#33 = COORDINATED_UNIVERSAL_TIME_OFFSET ( 1, 0, .AHEAD. ) ;
#34 = AXIS2_PLACEMENT_3D ( 'NONE', #266, #361, #83 ) ;
#35 = ORIENTED_EDGE ( 'NONE', *, *, #298, .T. ) ;
#36 = AXIS2_PLACEMENT_3D ( 'NONE', #185, #132, #161 ) ;
#37 = DIRECTION ( 'NONE',  ( -1.000000000000000000, 0.0000000000000000000, 0.0000000000000000000 ) ) ;
#38 = VERTEX_POINT ( 'NONE', #75 ) ;
#39 = LOCAL_TIME ( 14, 52, 4.000000000000000000, #269 ) ;
#40 = DIRECTION ( 'NONE',  ( 0.0000000000000000000, 0.0000000000000000000, 1.000000000000000000 ) ) ;
#41 = ORIENTED_EDGE ( 'NONE', *, *, #162, .F. ) ;
#42 = CARTESIAN_POINT ( 'NONE',  ( 4.000000000000000000, 0.0000000000000000000, 84.00000000000000000 ) ) ;
#43 = DIRECTION ( 'NONE',  ( 0.0000000000000000000, 0.0000000000000000000, 1.000000000000000000 ) ) ;
#44 = DIRECTION ( 'NONE',  ( 0.0000000000000000000, 0.0000000000000000000, 1.000000000000000000 ) ) ;
#45 = DIRECTION ( 'NONE',  ( -1.000000000000000000, 0.0000000000000000000, 0.0000000000000000000 ) ) ;
#46 = LOCAL_TIME ( 14, 52, 4.000000000000000000, #123 ) ;
#47 = PERSON_AND_ORGANIZATION_ROLE ( 'design_supplier' ) ;
#48 = CARTESIAN_POINT ( 'NONE',  ( -4.000000000000000000, 4.898587196589412800E-016, 75.00000000000001400 ) ) ;
#49 =( NAMED_UNIT ( * ) SI_UNIT ( $, .STERADIAN. ) SOLID_ANGLE_UNIT ( ) );
#50 = CARTESIAN_POINT ( 'NONE',  ( 0.0000000000000000000, 0.0000000000000000000, 0.0000000000000000000 ) ) ;
#51 = CIRCLE ( 'NONE', #278, 3.399999999999999900 ) ;
#52 = ORIENTED_EDGE ( 'NONE', *, *, #174, .F. ) ;
#53 = CC_DESIGN_SECURITY_CLASSIFICATION ( #183, ( #285 ) ) ;
#54 = DIRECTION ( 'NONE',  ( 0.0000000000000000000, 0.0000000000000000000, -1.000000000000000000 ) ) ;
#55 = EDGE_CURVE ( 'NONE', #249, #73, #121, .T. ) ;
#56 = CALENDAR_DATE ( 2019, 6, 5 ) ;
#57 = LINE ( 'NONE', #171, #155 ) ;
#58 = CARTESIAN_POINT ( 'NONE',  ( 3.400000000000000400, 4.163799117101001100E-016, 77.00000000000001400 ) ) ;
#59 = AXIS2_PLACEMENT_3D ( 'NONE', #250, #63, #37 ) ;
#60 = CIRCLE ( 'NONE', #158, 4.000000000000000000 ) ;
#61 = APPROVAL_DATE_TIME ( #210, #207 ) ;
#62 = CIRCLE ( 'NONE', #297, 3.000000000000002700 ) ;
#63 = DIRECTION ( 'NONE',  ( -0.0000000000000000000, -0.0000000000000000000, -1.000000000000000000 ) ) ;
#64 = ORIENTED_EDGE ( 'NONE', *, *, #273, .F. ) ;
#65 = DIRECTION ( 'NONE',  ( -0.0000000000000000000, -0.0000000000000000000, -1.000000000000000000 ) ) ;
#66 = ORGANIZATION ( 'UNSPECIFIED', 'UNSPECIFIED', '' ) ;
#67 = DIRECTION ( 'NONE',  ( 1.000000000000000000, 0.0000000000000000000, 0.0000000000000000000 ) ) ;
#68 = DIRECTION ( 'NONE',  ( 1.000000000000000000, 0.0000000000000000000, 0.0000000000000000000 ) ) ;
#69 = AXIS2_PLACEMENT_3D ( 'NONE', #175, #378, #286 ) ;
#70 = CARTESIAN_POINT ( 'NONE',  ( 3.400000000000000400, 0.0000000000000000000, 77.00000000000001400 ) ) ;
#71 = DATE_TIME_ROLE ( 'creation_date' ) ;
#72 = CIRCLE ( 'NONE', #36, 6.000000000000005300 ) ;
#73 = VERTEX_POINT ( 'NONE', #172 ) ;
#74 = DIRECTION ( 'NONE',  ( -0.0000000000000000000, -0.0000000000000000000, -1.000000000000000000 ) ) ;
#75 = CARTESIAN_POINT ( 'NONE',  ( 3.000000000000002700, 4.286263797015737600E-016, 85.00000000000000000 ) ) ;
#76 = ADVANCED_FACE ( 'NONE', ( #112, #173 ), #291, .T. ) ;
#77 = DIRECTION ( 'NONE',  ( -0.0000000000000000000, -0.0000000000000000000, -1.000000000000000000 ) ) ;
#78 = APPROVAL_PERSON_ORGANIZATION ( #93, #207, #262 ) ;
#79 = EDGE_LOOP ( 'NONE', ( #125, #353 ) ) ;
#80 = VECTOR ( 'NONE', #14, 1000.000000000000000 ) ;
#81 = AXIS2_PLACEMENT_3D ( 'NONE', #70, #354, #264 ) ;
#82 = DIRECTION ( 'NONE',  ( 0.0000000000000000000, 0.0000000000000000000, 1.000000000000000000 ) ) ;
#83 = DIRECTION ( 'NONE',  ( -1.000000000000000000, 0.0000000000000000000, 0.0000000000000000000 ) ) ;
#84 = PERSON ( 'UNSPECIFIED', 'UNSPECIFIED', 'UNSPECIFIED', ('UNSPECIFIED'), ('UNSPECIFIED'), ('UNSPECIFIED') ) ;
#85 = LOCAL_TIME ( 14, 52, 4.000000000000000000, #332 ) ;
#86 = ORIENTED_EDGE ( 'NONE', *, *, #202, .T. ) ;
#87 = FACE_OUTER_BOUND ( 'NONE', #100, .T. ) ;
#88 = ADVANCED_FACE ( 'NONE', ( #95 ), #374, .T. ) ;
#89 = ORIENTED_EDGE ( 'NONE', *, *, #120, .F. ) ;
#90 = APPROVAL_DATE_TIME ( #241, #230 ) ;
#91 = AXIS2_PLACEMENT_3D ( 'NONE', #213, #238, #147 ) ;
#92 = PRODUCT_RELATED_PRODUCT_CATEGORY ( 'detail', '', ( #116 ) ) ;
#93 = PERSON_AND_ORGANIZATION ( #84, #66 ) ;
#94 = CIRCLE ( 'NONE', #244, 6.000000000000005300 ) ;
#95 = FACE_OUTER_BOUND ( 'NONE', #31, .T. ) ;
#96 = AXIS2_PLACEMENT_3D ( 'NONE', #305, #43, #12 ) ;
#97 = DIRECTION ( 'NONE',  ( -0.0000000000000000000, -0.0000000000000000000, -1.000000000000000000 ) ) ;
#98 = DIRECTION ( 'NONE',  ( 1.000000000000000000, 0.0000000000000000000, 0.0000000000000000000 ) ) ;
#99 = EDGE_LOOP ( 'NONE', ( #211, #64 ) ) ;
#100 = EDGE_LOOP ( 'NONE', ( #277, #290, #89, #214 ) ) ;
#101 = EDGE_CURVE ( 'NONE', #24, #272, #259, .T. ) ;
#102 = CARTESIAN_POINT ( 'NONE',  ( -4.000000000000000000, 4.898587196589412800E-016, 77.00000000000001400 ) ) ;
#103 = DIRECTION ( 'NONE',  ( -1.000000000000000000, 0.0000000000000000000, 0.0000000000000000000 ) ) ;
#104 = AXIS2_PLACEMENT_3D ( 'NONE', #203, #257, #137 ) ;
#105 = APPROVAL_STATUS ( 'not_yet_approved' ) ;
#106 = ORIENTED_EDGE ( 'NONE', *, *, #55, .F. ) ;
#107 = DIRECTION ( 'NONE',  ( 1.000000000000000000, 0.0000000000000000000, 0.0000000000000000000 ) ) ;
#108 = CARTESIAN_POINT ( 'NONE',  ( 0.0000000000000000000, 0.0000000000000000000, 0.0000000000000000000 ) ) ;
#109 = PERSON_AND_ORGANIZATION_ROLE ( 'creator' ) ;
#110 = ORIENTED_EDGE ( 'NONE', *, *, #327, .T. ) ;
#111 = DATE_AND_TIME ( #56, #85 ) ;
#112 = FACE_OUTER_BOUND ( 'NONE', #163, .T. ) ;
#113 = AXIS2_PLACEMENT_3D ( 'NONE', #108, #198, #68 ) ;
#114 = ADVANCED_FACE ( 'NONE', ( #87 ), #329, .T. ) ;
#115 = DIRECTION ( 'NONE',  ( 1.000000000000000000, 0.0000000000000000000, 0.0000000000000000000 ) ) ;
#116 = PRODUCT ( 'A_0813-075-12Z', 'A_0813-075-12Z', '', ( #23 ) ) ;
#117 = CARTESIAN_POINT ( 'NONE',  ( 3.399999999999999900, 4.163799117101000600E-016, 75.00000000000001400 ) ) ;
#118 = EDGE_LOOP ( 'NONE', ( #339, #322, #267, #288 ) ) ;
#119 = CYLINDRICAL_SURFACE ( 'NONE', #349, 6.000000000000005300 ) ;
#120 = EDGE_CURVE ( 'NONE', #221, #182, #384, .T. ) ;
#121 = LINE ( 'NONE', #48, #270 ) ;
#122 = CYLINDRICAL_SURFACE ( 'NONE', #130, 4.000000000000000000 ) ;
#123 = COORDINATED_UNIVERSAL_TIME_OFFSET ( 1, 0, .AHEAD. ) ;
#124 = AXIS2_PLACEMENT_3D ( 'NONE', #209, #176, #186 ) ;
#125 = ORIENTED_EDGE ( 'NONE', *, *, #120, .T. ) ;
#126 = CYLINDRICAL_SURFACE ( 'NONE', #59, 6.000000000000005300 ) ;
#127 = VERTEX_POINT ( 'NONE', #149 ) ;
#128 = CARTESIAN_POINT ( 'NONE',  ( 0.0000000000000000000, 0.0000000000000000000, 0.0000000000000000000 ) ) ;
#129 = PRODUCT_DEFINITION_SHAPE ( 'NONE', 'NONE',  #212 ) ;
#130 = AXIS2_PLACEMENT_3D ( 'NONE', #352, #356, #379 ) ;
#131 = DIRECTION ( 'NONE',  ( -0.0000000000000000000, -0.0000000000000000000, -1.000000000000000000 ) ) ;
#132 = DIRECTION ( 'NONE',  ( 0.0000000000000000000, 0.0000000000000000000, 1.000000000000000000 ) ) ;
#133 = CARTESIAN_POINT ( 'NONE',  ( 0.0000000000000000000, 0.0000000000000000000, 77.00000000000001400 ) ) ;
#134 = ORIENTED_EDGE ( 'NONE', *, *, #101, .F. ) ;
#135 = VECTOR ( 'NONE', #97, 1000.000000000000000 ) ;
#136 = APPROVAL_STATUS ( 'not_yet_approved' ) ;
#137 = DIRECTION ( 'NONE',  ( -1.000000000000000000, 0.0000000000000000000, 0.0000000000000000000 ) ) ;
#138 = AXIS2_PLACEMENT_3D ( 'NONE', #133, #369, #193 ) ;
#139 = DESIGN_CONTEXT ( 'detailed design', #284, 'design' ) ;
#140 = PERSON_AND_ORGANIZATION_ROLE ( 'classification_officer' ) ;
#141 = EDGE_LOOP ( 'NONE', ( #188, #258 ) ) ;
#142 = CIRCLE ( 'NONE', #180, 4.000000000000000000 ) ;
#143 = ORIENTED_EDGE ( 'NONE', *, *, #256, .F. ) ;
#144 = EDGE_CURVE ( 'NONE', #253, #73, #157, .T. ) ;
#145 = ADVANCED_FACE ( 'NONE', ( #283 ), #119, .T. ) ;
#146 = CIRCLE ( 'NONE', #357, 3.400000000000000400 ) ;
#147 = DIRECTION ( 'NONE',  ( 1.000000000000000000, 0.0000000000000000000, 0.0000000000000000000 ) ) ;
#148 = ADVANCED_FACE ( 'NONE', ( #206 ), #240, .F. ) ;
#149 = CARTESIAN_POINT ( 'NONE',  ( 4.000000000000000000, 0.0000000000000000000, 77.00000000000001400 ) ) ;
#150 = DIRECTION ( 'NONE',  ( 0.7071067811865463500, 8.659560562354919300E-017, -0.7071067811865487900 ) ) ;
#151 = LINE ( 'NONE', #16, #80 ) ;
#152 = VERTEX_POINT ( 'NONE', #236 ) ;
#153 = AXIS2_PLACEMENT_3D ( 'NONE', #160, #40, #194 ) ;
#154 = EDGE_LOOP ( 'NONE', ( #263, #134, #110, #337 ) ) ;
#155 = VECTOR ( 'NONE', #167, 1000.000000000000000 ) ;
#156 = AXIS2_PLACEMENT_3D ( 'NONE', #275, #44, #67 ) ;
#157 = LINE ( 'NONE', #360, #229 ) ;
#158 = AXIS2_PLACEMENT_3D ( 'NONE', #32, #54, #115 ) ;
#159 = DIRECTION ( 'NONE',  ( 0.0000000000000000000, 0.0000000000000000000, 1.000000000000000000 ) ) ;
#160 = CARTESIAN_POINT ( 'NONE',  ( 0.0000000000000000000, 0.0000000000000000000, 75.00000000000001400 ) ) ;
#161 = DIRECTION ( 'NONE',  ( 1.000000000000000000, 0.0000000000000000000, 0.0000000000000000000 ) ) ;
#162 = EDGE_CURVE ( 'NONE', #38, #265, #197, .T. ) ;
#163 = EDGE_LOOP ( 'NONE', ( #336, #86 ) ) ;
#164 = CONICAL_SURFACE ( 'NONE', #271, 3.000000000000002700, 0.7853981633974466100 ) ;
#165 = CARTESIAN_POINT ( 'NONE',  ( 0.0000000000000000000, 0.0000000000000000000, 77.00000000000001400 ) ) ;
#166 = CC_DESIGN_DATE_AND_TIME_ASSIGNMENT ( #111, #71, ( #212 ) ) ;
#167 = DIRECTION ( 'NONE',  ( -0.0000000000000000000, -0.0000000000000000000, -1.000000000000000000 ) ) ;
#168 =( NAMED_UNIT ( * ) PLANE_ANGLE_UNIT ( ) SI_UNIT ( $, .RADIAN. ) );
#169 = PERSON_AND_ORGANIZATION ( #84, #66 ) ;
#170 = EDGE_LOOP ( 'NONE', ( #362, #342 ) ) ;
#171 = CARTESIAN_POINT ( 'NONE',  ( -3.400000000000000400, 0.0000000000000000000, 0.0000000000000000000 ) ) ;
#172 = CARTESIAN_POINT ( 'NONE',  ( -4.000000000000000000, 4.898587196589412800E-016, 84.00000000000000000 ) ) ;
#173 = FACE_BOUND ( 'NONE', #383, .T. ) ;
#174 = EDGE_CURVE ( 'NONE', #73, #265, #60, .T. ) ;
#175 = CARTESIAN_POINT ( 'NONE',  ( 0.0000000000000000000, 0.0000000000000000000, 0.0000000000000000000 ) ) ;
#176 = DIRECTION ( 'NONE',  ( 0.0000000000000000000, 0.0000000000000000000, 1.000000000000000000 ) ) ;
#177 = EDGE_LOOP ( 'NONE', ( #41, #143, #301, #358 ) ) ;
#178 = DIRECTION ( 'NONE',  ( -0.7071067811865463500, 0.0000000000000000000, -0.7071067811865487900 ) ) ;
#179 = ORIENTED_EDGE ( 'NONE', *, *, #144, .F. ) ;
#180 = AXIS2_PLACEMENT_3D ( 'NONE', #350, #375, #313 ) ;
#181 = AXIS2_PLACEMENT_3D ( 'NONE', #165, #281, #306 ) ;
#182 = VERTEX_POINT ( 'NONE', #117 ) ;
#183 = SECURITY_CLASSIFICATION ( '', '', #316 ) ;
#184 = CIRCLE ( 'NONE', #156, 3.000000000000002700 ) ;
#185 = CARTESIAN_POINT ( 'NONE',  ( 0.0000000000000000000, 0.0000000000000000000, 0.0000000000000000000 ) ) ;
#186 = DIRECTION ( 'NONE',  ( 1.000000000000000000, 0.0000000000000000000, -0.0000000000000000000 ) ) ;
#187 = CARTESIAN_POINT ( 'NONE',  ( 0.0000000000000000000, 0.0000000000000000000, 75.00000000000001400 ) ) ;
#188 = ORIENTED_EDGE ( 'NONE', *, *, #256, .T. ) ;
#189 = PERSON_AND_ORGANIZATION ( #84, #66 ) ;
#190 = VERTEX_POINT ( 'NONE', #58 ) ;
#191 = DIRECTION ( 'NONE',  ( 0.0000000000000000000, 0.0000000000000000000, -1.000000000000000000 ) ) ;
#192 = PLANE ( 'NONE',  #124 ) ;
#193 = DIRECTION ( 'NONE',  ( -1.000000000000000000, 0.0000000000000000000, 0.0000000000000000000 ) ) ;
#194 = DIRECTION ( 'NONE',  ( 1.000000000000000000, 0.0000000000000000000, 0.0000000000000000000 ) ) ;
#195 = EDGE_CURVE ( 'NONE', #272, #24, #348, .T. ) ;
#196 = CONICAL_SURFACE ( 'NONE', #104, 3.000000000000002700, 0.7853981633974466100 ) ;
#197 = LINE ( 'NONE', #28, #3 ) ;
#198 = DIRECTION ( 'NONE',  ( 0.0000000000000000000, 0.0000000000000000000, 1.000000000000000000 ) ) ;
#199 = APPROVAL_ROLE ( '' ) ;
#200 = CARTESIAN_POINT ( 'NONE',  ( 0.0000000000000000000, 0.0000000000000000000, 77.00000000000001400 ) ) ;
#201 = APPLICATION_CONTEXT ( 'configuration controlled 3d designs of mechanical parts and assemblies' ) ;
#202 = EDGE_CURVE ( 'NONE', #249, #127, #11, .T. ) ;
#203 = CARTESIAN_POINT ( 'NONE',  ( 0.0000000000000000000, 0.0000000000000000000, 85.00000000000000000 ) ) ;
#204 = ADVANCED_FACE ( 'NONE', ( #367 ), #359, .T. ) ;
#205 = ORIENTED_EDGE ( 'NONE', *, *, #345, .T. ) ;
#206 = FACE_OUTER_BOUND ( 'NONE', #99, .T. ) ;
#207 = APPROVAL ( #105, 'UNSPECIFIED' ) ;
#208 = VECTOR ( 'NONE', #77, 1000.000000000000000 ) ;
#209 = CARTESIAN_POINT ( 'NONE',  ( 0.0000000000000000000, 0.0000000000000000000, 75.00000000000001400 ) ) ;
#210 = DATE_AND_TIME ( #6, #39 ) ;
#211 = ORIENTED_EDGE ( 'NONE', *, *, #312, .F. ) ;
#212 = PRODUCT_DEFINITION ( 'UNKNOWN', '', #285, #139 ) ;
#213 = CARTESIAN_POINT ( 'NONE',  ( 0.0000000000000000000, 0.0000000000000000000, 75.00000000000001400 ) ) ;
#214 = ORIENTED_EDGE ( 'NONE', *, *, #345, .F. ) ;
#215 = ORIENTED_EDGE ( 'NONE', *, *, #55, .T. ) ;
#216 = MANIFOLD_SOLID_BREP ( 'Zkosení1', #372 ) ;
#217 = AXIS2_PLACEMENT_3D ( 'NONE', #50, #74, #326 ) ;
#218 = APPROVAL_PERSON_ORGANIZATION ( #355, #230, #21 ) ;
#219 = LINE ( 'NONE', #303, #268 ) ;
#220 = EDGE_CURVE ( 'NONE', #190, #296, #146, .T. ) ;
#221 = VERTEX_POINT ( 'NONE', #304 ) ;
#222 = FACE_OUTER_BOUND ( 'NONE', #141, .T. ) ;
#223 = DIRECTION ( 'NONE',  ( 1.000000000000000000, 0.0000000000000000000, 0.0000000000000000000 ) ) ;
#224 = CC_DESIGN_PERSON_AND_ORGANIZATION_ASSIGNMENT ( #169, #311, ( #212 ) ) ;
#225 = CARTESIAN_POINT ( 'NONE',  ( 0.0000000000000000000, 0.0000000000000000000, 85.00000000000000000 ) ) ;
#226 = CARTESIAN_POINT ( 'NONE',  ( 0.0000000000000000000, 0.0000000000000000000, 75.00000000000001400 ) ) ;
#227 = DIRECTION ( 'NONE',  ( -1.000000000000000000, 0.0000000000000000000, 0.0000000000000000000 ) ) ;
#228 = CALENDAR_DATE ( 2019, 6, 5 ) ;
#229 = VECTOR ( 'NONE', #178, 1000.000000000000000 ) ;
#230 = APPROVAL ( #136, 'UNSPECIFIED' ) ;
#231 = APPLICATION_PROTOCOL_DEFINITION ( 'international standard', 'config_control_design', 1994, #284 ) ;
#232 = CIRCLE ( 'NONE', #181, 4.000000000000000000 ) ;
#233 = VERTEX_POINT ( 'NONE', #252 ) ;
#234 = CALENDAR_DATE ( 2019, 6, 5 ) ;
#235 = AXIS2_PLACEMENT_3D ( 'NONE', #200, #131, #45 ) ;
#236 = CARTESIAN_POINT ( 'NONE',  ( -6.000000000000005300, 0.0000000000000000000, 0.0000000000000000000 ) ) ;
#237 = DIRECTION ( 'NONE',  ( -1.000000000000000000, 0.0000000000000000000, 0.0000000000000000000 ) ) ;
#238 = DIRECTION ( 'NONE',  ( 0.0000000000000000000, 0.0000000000000000000, 1.000000000000000000 ) ) ;
#239 = ADVANCED_FACE ( 'NONE', ( #315, #242 ), #192, .T. ) ;
#240 = PLANE ( 'NONE',  #10 ) ;
#241 = DATE_AND_TIME ( #228, #314 ) ;
#242 = FACE_BOUND ( 'NONE', #79, .T. ) ;
#243 = EDGE_LOOP ( 'NONE', ( #7, #317, #52, #179 ) ) ;
#244 = AXIS2_PLACEMENT_3D ( 'NONE', #128, #159, #223 ) ;
#245 = ORIENTED_EDGE ( 'NONE', *, *, #247, .F. ) ;
#246 = ORIENTED_EDGE ( 'NONE', *, *, #220, .T. ) ;
#247 = EDGE_CURVE ( 'NONE', #296, #190, #302, .T. ) ;
#248 = DATE_AND_TIME ( #347, #46 ) ;
#249 = VERTEX_POINT ( 'NONE', #102 ) ;
#250 = CARTESIAN_POINT ( 'NONE',  ( 0.0000000000000000000, 0.0000000000000000000, 85.00000000000000000 ) ) ;
#251 = CARTESIAN_POINT ( 'NONE',  ( -3.000000000000002700, 0.0000000000000000000, 85.00000000000000000 ) ) ;
#252 = CARTESIAN_POINT ( 'NONE',  ( 6.000000000000005300, 7.347880794884125700E-016, 0.0000000000000000000 ) ) ;
#253 = VERTEX_POINT ( 'NONE', #251 ) ;
#254 = AXIS2_PLACEMENT_3D ( 'NONE', #226, #282, #107 ) ;
#255 =( LENGTH_UNIT ( ) NAMED_UNIT ( * ) SI_UNIT ( .MILLI., .METRE. ) );
#256 = EDGE_CURVE ( 'NONE', #253, #38, #62, .T. ) ;
#257 = DIRECTION ( 'NONE',  ( 0.0000000000000000000, 0.0000000000000000000, -1.000000000000000000 ) ) ;
#258 = ORIENTED_EDGE ( 'NONE', *, *, #280, .T. ) ;
#259 = CIRCLE ( 'NONE', #91, 6.000000000000005300 ) ;
#260 = ORIENTED_EDGE ( 'NONE', *, *, #300, .F. ) ;
#261 = DIRECTION ( 'NONE',  ( -0.0000000000000000000, -0.0000000000000000000, 1.000000000000000000 ) ) ;
#262 = APPROVAL_ROLE ( '' ) ;
#263 = ORIENTED_EDGE ( 'NONE', *, *, #324, .F. ) ;
#264 = DIRECTION ( 'NONE',  ( -1.000000000000000000, 0.0000000000000000000, 0.0000000000000000000 ) ) ;
#265 = VERTEX_POINT ( 'NONE', #42 ) ;
#266 = CARTESIAN_POINT ( 'NONE',  ( 0.0000000000000000000, 0.0000000000000000000, 75.00000000000001400 ) ) ;
#267 = ORIENTED_EDGE ( 'NONE', *, *, #273, .T. ) ;
#268 = VECTOR ( 'NONE', #13, 1000.000000000000000 ) ;
#269 = COORDINATED_UNIVERSAL_TIME_OFFSET ( 1, 0, .AHEAD. ) ;
#270 = VECTOR ( 'NONE', #261, 1000.000000000000000 ) ;
#271 = AXIS2_PLACEMENT_3D ( 'NONE', #225, #191, #103 ) ;
#272 = VERTEX_POINT ( 'NONE', #343 ) ;
#273 = EDGE_CURVE ( 'NONE', #233, #152, #72, .T. ) ;
#274 = CARTESIAN_POINT ( 'NONE',  ( -6.000000000000005300, 0.0000000000000000000, 85.00000000000000000 ) ) ;
#275 = CARTESIAN_POINT ( 'NONE',  ( 0.0000000000000000000, 0.0000000000000000000, 85.00000000000000000 ) ) ;
#276 = ORIENTED_EDGE ( 'NONE', *, *, #298, .F. ) ;
#277 = ORIENTED_EDGE ( 'NONE', *, *, #247, .T. ) ;
#278 = AXIS2_PLACEMENT_3D ( 'NONE', #187, #65, #344 ) ;
#279 = PLANE ( 'NONE',  #96 ) ;
#280 = EDGE_CURVE ( 'NONE', #38, #253, #184, .T. ) ;
#281 = DIRECTION ( 'NONE',  ( -0.0000000000000000000, -0.0000000000000000000, -1.000000000000000000 ) ) ;
#282 = DIRECTION ( 'NONE',  ( -0.0000000000000000000, -0.0000000000000000000, 1.000000000000000000 ) ) ;
#283 = FACE_OUTER_BOUND ( 'NONE', #154, .T. ) ;
#284 = APPLICATION_CONTEXT ( 'configuration controlled 3d designs of mechanical parts and assemblies' ) ;
#285 = PRODUCT_DEFINITION_FORMATION_WITH_SPECIFIED_SOURCE ( 'ANY', '', #116, .NOT_KNOWN. ) ;
#286 = DIRECTION ( 'NONE',  ( -1.000000000000000000, 0.0000000000000000000, 0.0000000000000000000 ) ) ;
#287 = APPLICATION_PROTOCOL_DEFINITION ( 'international standard', 'config_control_design', 1994, #201 ) ;
#288 = ORIENTED_EDGE ( 'NONE', *, *, #327, .F. ) ;
#289 = FACE_OUTER_BOUND ( 'NONE', #243, .T. ) ;
#290 = ORIENTED_EDGE ( 'NONE', *, *, #22, .T. ) ;
#291 = PLANE ( 'NONE',  #81 ) ;
#292 = PERSON_AND_ORGANIZATION ( #84, #66 ) ;
#293 = LINE ( 'NONE', #274, #135 ) ;
#294 = EDGE_CURVE ( 'NONE', #182, #221, #51, .T. ) ;
#295 = CARTESIAN_POINT ( 'NONE',  ( 0.0000000000000000000, 0.0000000000000000000, 0.0000000000000000000 ) ) ;
#296 = VERTEX_POINT ( 'NONE', #338 ) ;
#297 = AXIS2_PLACEMENT_3D ( 'NONE', #368, #346, #98 ) ;
#298 = EDGE_CURVE ( 'NONE', #127, #265, #219, .T. ) ;
#299 = ORIENTED_EDGE ( 'NONE', *, *, #202, .F. ) ;
#300 = EDGE_CURVE ( 'NONE', #127, #249, #232, .T. ) ;
#301 = ORIENTED_EDGE ( 'NONE', *, *, #144, .T. ) ;
#302 = CIRCLE ( 'NONE', #138, 3.400000000000000400 ) ;
#303 = CARTESIAN_POINT ( 'NONE',  ( 4.000000000000000000, 0.0000000000000000000, 75.00000000000001400 ) ) ;
#304 = CARTESIAN_POINT ( 'NONE',  ( -3.399999999999999900, 0.0000000000000000000, 75.00000000000001400 ) ) ;
#305 = CARTESIAN_POINT ( 'NONE',  ( 0.0000000000000000000, 0.0000000000000000000, 85.00000000000000000 ) ) ;
#306 = DIRECTION ( 'NONE',  ( -1.000000000000000000, 0.0000000000000000000, 0.0000000000000000000 ) ) ;
#307 = PERSON_AND_ORGANIZATION ( #84, #66 ) ;
#308 = ORIENTED_EDGE ( 'NONE', *, *, #174, .T. ) ;
#309 =( GEOMETRIC_REPRESENTATION_CONTEXT ( 3 ) GLOBAL_UNCERTAINTY_ASSIGNED_CONTEXT ( ( #8 ) ) GLOBAL_UNIT_ASSIGNED_CONTEXT ( ( #255, #168, #49 ) ) REPRESENTATION_CONTEXT ( 'NONE', 'WORKASPACE' ) );
#310 = APPROVAL_STATUS ( 'not_yet_approved' ) ;
#311 = PERSON_AND_ORGANIZATION_ROLE ( 'creator' ) ;
#312 = EDGE_CURVE ( 'NONE', #152, #233, #94, .T. ) ;
#313 = DIRECTION ( 'NONE',  ( 1.000000000000000000, 0.0000000000000000000, 0.0000000000000000000 ) ) ;
#314 = LOCAL_TIME ( 14, 52, 4.000000000000000000, #328 ) ;
#315 = FACE_OUTER_BOUND ( 'NONE', #170, .T. ) ;
#316 = SECURITY_CLASSIFICATION_LEVEL ( 'unclassified' ) ;
#317 = ORIENTED_EDGE ( 'NONE', *, *, #162, .T. ) ;
#318 = ADVANCED_FACE ( 'NONE', ( #289 ), #164, .T. ) ;
#319 = CARTESIAN_POINT ( 'NONE',  ( -6.000000000000005300, 0.0000000000000000000, 75.00000000000001400 ) ) ;
#320 = CC_DESIGN_PERSON_AND_ORGANIZATION_ASSIGNMENT ( #307, #109, ( #285 ) ) ;
#321 = LOCAL_TIME ( 14, 52, 4.000000000000000000, #33 ) ;
#322 = ORIENTED_EDGE ( 'NONE', *, *, #324, .T. ) ;
#323 = ADVANCED_BREP_SHAPE_REPRESENTATION ( 'A_0813-075-12Z', ( #216, #113 ), #309 ) ;
#324 = EDGE_CURVE ( 'NONE', #272, #233, #151, .T. ) ;
#325 = ADVANCED_FACE ( 'NONE', ( #222 ), #279, .T. ) ;
#326 = DIRECTION ( 'NONE',  ( -1.000000000000000000, 0.0000000000000000000, 0.0000000000000000000 ) ) ;
#327 = EDGE_CURVE ( 'NONE', #24, #152, #293, .T. ) ;
#328 = COORDINATED_UNIVERSAL_TIME_OFFSET ( 1, 0, .AHEAD. ) ;
#329 = CYLINDRICAL_SURFACE ( 'NONE', #217, 3.400000000000000400 ) ;
#330 = EDGE_LOOP ( 'NONE', ( #299, #215, #308, #276 ) ) ;
#331 = ADVANCED_FACE ( 'NONE', ( #30 ), #126, .T. ) ;
#332 = COORDINATED_UNIVERSAL_TIME_OFFSET ( 1, 0, .AHEAD. ) ;
#333 = LINE ( 'NONE', #25, #208 ) ;
#334 = CC_DESIGN_PERSON_AND_ORGANIZATION_ASSIGNMENT ( #292, #20, ( #116 ) ) ;
#335 = EDGE_CURVE ( 'NONE', #265, #73, #142, .T. ) ;
#336 = ORIENTED_EDGE ( 'NONE', *, *, #300, .T. ) ;
#337 = ORIENTED_EDGE ( 'NONE', *, *, #312, .T. ) ;
#338 = CARTESIAN_POINT ( 'NONE',  ( -3.400000000000000400, 0.0000000000000000000, 77.00000000000001400 ) ) ;
#339 = ORIENTED_EDGE ( 'NONE', *, *, #195, .F. ) ;
#340 = APPROVAL_DATE_TIME ( #248, #380 ) ;
#341 = CC_DESIGN_PERSON_AND_ORGANIZATION_ASSIGNMENT ( #189, #47, ( #285 ) ) ;
#342 = ORIENTED_EDGE ( 'NONE', *, *, #195, .T. ) ;
#343 = CARTESIAN_POINT ( 'NONE',  ( 6.000000000000005300, 7.347880794884125700E-016, 75.00000000000001400 ) ) ;
#344 = DIRECTION ( 'NONE',  ( -1.000000000000000000, 0.0000000000000000000, 0.0000000000000000000 ) ) ;
#345 = EDGE_CURVE ( 'NONE', #296, #221, #57, .T. ) ;
#346 = DIRECTION ( 'NONE',  ( 0.0000000000000000000, 0.0000000000000000000, 1.000000000000000000 ) ) ;
#347 = CALENDAR_DATE ( 2019, 6, 5 ) ;
#348 = CIRCLE ( 'NONE', #153, 6.000000000000005300 ) ;
#349 = AXIS2_PLACEMENT_3D ( 'NONE', #29, #2, #237 ) ;
#350 = CARTESIAN_POINT ( 'NONE',  ( 0.0000000000000000000, 0.0000000000000000000, 84.00000000000000000 ) ) ;
#351 = DATE_TIME_ROLE ( 'classification_date' ) ;
#352 = CARTESIAN_POINT ( 'NONE',  ( 0.0000000000000000000, 0.0000000000000000000, 75.00000000000001400 ) ) ;
#353 = ORIENTED_EDGE ( 'NONE', *, *, #294, .T. ) ;
#354 = DIRECTION ( 'NONE',  ( -0.0000000000000000000, 0.0000000000000000000, -1.000000000000000000 ) ) ;
#355 = PERSON_AND_ORGANIZATION ( #84, #66 ) ;
#356 = DIRECTION ( 'NONE',  ( -0.0000000000000000000, -0.0000000000000000000, 1.000000000000000000 ) ) ;
#357 = AXIS2_PLACEMENT_3D ( 'NONE', #373, #19, #227 ) ;
#358 = ORIENTED_EDGE ( 'NONE', *, *, #335, .F. ) ;
#359 = CYLINDRICAL_SURFACE ( 'NONE', #254, 4.000000000000000000 ) ;
#360 = CARTESIAN_POINT ( 'NONE',  ( -3.000000000000002700, 0.0000000000000000000, 85.00000000000000000 ) ) ;
#361 = DIRECTION ( 'NONE',  ( -0.0000000000000000000, -0.0000000000000000000, -1.000000000000000000 ) ) ;
#362 = ORIENTED_EDGE ( 'NONE', *, *, #101, .T. ) ;
#363 = ORIENTED_EDGE ( 'NONE', *, *, #220, .F. ) ;
#364 = CC_DESIGN_PERSON_AND_ORGANIZATION_ASSIGNMENT ( #26, #140, ( #183 ) ) ;
#365 = CC_DESIGN_APPROVAL ( #230, ( #285 ) ) ;
#366 = ORIENTED_EDGE ( 'NONE', *, *, #335, .T. ) ;
#367 = FACE_OUTER_BOUND ( 'NONE', #18, .T. ) ;
#368 = CARTESIAN_POINT ( 'NONE',  ( 0.0000000000000000000, 0.0000000000000000000, 85.00000000000000000 ) ) ;
#369 = DIRECTION ( 'NONE',  ( -0.0000000000000000000, -0.0000000000000000000, -1.000000000000000000 ) ) ;
#370 = APPROVAL_PERSON_ORGANIZATION ( #382, #380, #199 ) ;
#371 = CC_DESIGN_APPROVAL ( #207, ( #212 ) ) ;
#372 = CLOSED_SHELL ( 'NONE', ( #318, #5, #114, #331, #145, #148, #239, #88, #76, #325, #204, #381 ) ) ;
#373 = CARTESIAN_POINT ( 'NONE',  ( 0.0000000000000000000, 0.0000000000000000000, 77.00000000000001400 ) ) ;
#374 = CYLINDRICAL_SURFACE ( 'NONE', #69, 3.400000000000000400 ) ;
#375 = DIRECTION ( 'NONE',  ( 0.0000000000000000000, 0.0000000000000000000, -1.000000000000000000 ) ) ;
#376 = FACE_OUTER_BOUND ( 'NONE', #330, .T. ) ;
#377 = SHAPE_DEFINITION_REPRESENTATION ( #129, #323 ) ;
#378 = DIRECTION ( 'NONE',  ( -0.0000000000000000000, -0.0000000000000000000, -1.000000000000000000 ) ) ;
#379 = DIRECTION ( 'NONE',  ( 1.000000000000000000, 0.0000000000000000000, 0.0000000000000000000 ) ) ;
#380 = APPROVAL ( #310, 'UNSPECIFIED' ) ;
#381 = ADVANCED_FACE ( 'NONE', ( #9 ), #196, .T. ) ;
#382 = PERSON_AND_ORGANIZATION ( #84, #66 ) ;
#383 = EDGE_LOOP ( 'NONE', ( #245, #363 ) ) ;
#384 = CIRCLE ( 'NONE', #34, 3.399999999999999900 ) ;
#385 = DIRECTION ( 'NONE',  ( 1.000000000000000000, 0.0000000000000000000, -0.0000000000000000000 ) ) ;
ENDSEC;
END-ISO-10303-21;
