ISO-10303-21;
HEADER;
FILE_DESCRIPTION (( 'STEP AP203' ),
    '1' );
FILE_NAME ('0100000000020935_10_A_0221-2512.STEP',
    '2022-06-08T09:24:19',
    ( '' ),
    ( '' ),
    'SwSTEP 2.0',
    'SolidWorks 2019',
    '' );
FILE_SCHEMA (( 'CONFIG_CONTROL_DESIGN' ));
ENDSEC;

DATA;
#1 = VERTEX_POINT ( 'NONE', #155 ) ;
#2 = CONICAL_SURFACE ( 'NONE', #90, 6.249999999999997335, 0.7853981633974425058 ) ;
#3 = ORIENTED_EDGE ( 'NONE', *, *, #107, .T. ) ;
#4 = ORIENTED_EDGE ( 'NONE', *, *, #152, .F. ) ;
#5 = APPROVAL ( #82, 'NEURÈENÝ' ) ;
#6 = DIRECTION ( 'NONE',  ( 0.000000000000000000, 0.000000000000000000, 1.000000000000000000 ) ) ;
#7 = DIRECTION ( 'NONE',  ( -1.000000000000000000, -0.000000000000000000, -0.000000000000000000 ) ) ;
#8 = DIRECTION ( 'NONE',  ( -1.000000000000000000, 0.000000000000000000, 0.000000000000000000 ) ) ;
#9 = DIRECTION ( 'NONE',  ( -1.499759782661857608E-32, 1.224646799147353207E-16, 1.000000000000000000 ) ) ;
#10 = DIRECTION ( 'NONE',  ( 0.000000000000000000, 0.000000000000000000, 1.000000000000000000 ) ) ;
#11 = EDGE_CURVE ( 'NONE', #1, #181, #116, .T. ) ;
#12 =( NAMED_UNIT ( * ) PLANE_ANGLE_UNIT ( ) SI_UNIT ( $, .RADIAN. ) );
#13 = VECTOR ( 'NONE', #123, 1000.000000000000000 ) ;
#14 = APPLICATION_PROTOCOL_DEFINITION ( 'international standard', 'config_control_design', 1994, #131 ) ;
#15 = EDGE_CURVE ( 'NONE', #266, #220, #23, .T. ) ;
#16 = ORIENTED_EDGE ( 'NONE', *, *, #81, .T. ) ;
#17 = CALENDAR_DATE ( 2022, 8, 6 ) ;
#18 = DIRECTION ( 'NONE',  ( 0.000000000000000000, 0.000000000000000000, -1.000000000000000000 ) ) ;
#19 = ORIENTED_EDGE ( 'NONE', *, *, #232, .T. ) ;
#20 = LOCAL_TIME ( 11, 24, 19.00000000000000000, #177 ) ;
#21 = CC_DESIGN_PERSON_AND_ORGANIZATION_ASSIGNMENT ( #153, #268, ( #252 ) ) ;
#22 = CARTESIAN_POINT ( 'NONE',  ( -12.00000000000000000, 0.000000000000000000, -6.249999999999996447 ) ) ;
#23 = CIRCLE ( 'NONE', #284, 6.529229168459499633 ) ;
#24 = LINE ( 'NONE', #73, #274 ) ;
#25 = ORIENTED_EDGE ( 'NONE', *, *, #70, .F. ) ;
#26 = SPHERICAL_SURFACE ( 'NONE', #37, 12.50000000000000000 ) ;
#27 = CC_DESIGN_PERSON_AND_ORGANIZATION_ASSIGNMENT ( #196, #175, ( #58 ) ) ;
#28 = AXIS2_PLACEMENT_3D ( 'NONE', #142, #7, #100 ) ;
#29 = DIRECTION ( 'NONE',  ( 0.000000000000000000, 0.000000000000000000, -1.000000000000000000 ) ) ;
#30 = CARTESIAN_POINT ( 'NONE',  ( -0.3000000000000047629, 0.000000000000000000, 0.000000000000000000 ) ) ;
#31 = DIRECTION ( 'NONE',  ( 0.000000000000000000, 0.000000000000000000, -1.000000000000000000 ) ) ;
#32 = CONICAL_SURFACE ( 'NONE', #67, 6.249999999999996447, 1.029744258676653867 ) ;
#33 = PRODUCT ( '0100000000020935_10_A_0221-2512', '0100000000020935_10_A_0221-2512', '', ( #87 ) ) ;
#34 = LINE ( 'NONE', #188, #109 ) ;
#35 = LOCAL_TIME ( 11, 24, 19.00000000000000000, #226 ) ;
#36 = PERSON_AND_ORGANIZATION ( #202, #170 ) ;
#37 = AXIS2_PLACEMENT_3D ( 'NONE', #233, #6, #98 ) ;
#38 = VERTEX_POINT ( 'NONE', #206 ) ;
#39 = APPROVAL_STATUS ( 'not_yet_approved' ) ;
#40 = AXIS2_PLACEMENT_3D ( 'NONE', #282, #235, #121 ) ;
#41 = ADVANCED_FACE ( 'NONE', ( #176 ), #140, .F. ) ;
#42 = CALENDAR_DATE ( 2022, 8, 6 ) ;
#43 = APPROVAL_DATE_TIME ( #246, #270 ) ;
#44 = ORIENTED_EDGE ( 'NONE', *, *, #185, .F. ) ;
#45 = ORIENTED_EDGE ( 'NONE', *, *, #96, .F. ) ;
#46 = AXIS2_PLACEMENT_3D ( 'NONE', #269, #62, #197 ) ;
#47 = ORIENTED_EDGE ( 'NONE', *, *, #11, .F. ) ;
#48 = CC_DESIGN_PERSON_AND_ORGANIZATION_ASSIGNMENT ( #243, #64, ( #101 ) ) ;
#49 = CARTESIAN_POINT ( 'NONE',  ( -12.00000000000000000, 0.000000000000000000, -6.249999999999996447 ) ) ;
#50 = EDGE_CURVE ( 'NONE', #251, #136, #24, .T. ) ;
#51 = MANIFOLD_SOLID_BREP ( 'Zkosení1', #229 ) ;
#52 = LINE ( 'NONE', #126, #156 ) ;
#53 = CARTESIAN_POINT ( 'NONE',  ( -12.00000000000000000, 7.654042494670953662E-16, 6.249999999999996447 ) ) ;
#54 = CARTESIAN_POINT ( 'NONE',  ( -0.3000000000000047629, 7.654042494670954648E-16, 6.249999999999997335 ) ) ;
#55 = CIRCLE ( 'NONE', #245, 6.249999999999996447 ) ;
#56 = CARTESIAN_POINT ( 'NONE',  ( -0.02077083154050553965, 6.529229168459498744, 0.000000000000000000 ) ) ;
#57 = PERSON_AND_ORGANIZATION_ROLE ( 'creator' ) ;
#58 = PRODUCT_DEFINITION_FORMATION_WITH_SPECIFIED_SOURCE ( 'LIBOVOLNÝ', '', #33, .NOT_KNOWN. ) ;
#59 = EDGE_LOOP ( 'NONE', ( #158, #154, #4, #228, #275 ) ) ;
#60 = DATE_AND_TIME ( #17, #20 ) ;
#61 = COORDINATED_UNIVERSAL_TIME_OFFSET ( 1, 0, .AHEAD. ) ;
#62 = DIRECTION ( 'NONE',  ( 0.000000000000000000, 0.000000000000000000, 1.000000000000000000 ) ) ;
#63 = ADVANCED_FACE ( 'NONE', ( #234 ), #2, .F. ) ;
#64 = PERSON_AND_ORGANIZATION_ROLE ( 'classification_officer' ) ;
#65 = ORIENTED_EDGE ( 'NONE', *, *, #238, .F. ) ;
#66 = ORIENTED_EDGE ( 'NONE', *, *, #145, .F. ) ;
#67 = AXIS2_PLACEMENT_3D ( 'NONE', #77, #104, #265 ) ;
#68 = VERTEX_POINT ( 'NONE', #161 ) ;
#69 = CARTESIAN_POINT ( 'NONE',  ( -0.02077083154050467229, 0.000000000000000000, 0.000000000000000000 ) ) ;
#70 = EDGE_CURVE ( 'NONE', #38, #220, #257, .T. ) ;
#71 = UNCERTAINTY_MEASURE_WITH_UNIT (LENGTH_MEASURE( 1.000000000000000082E-05 ), #236, 'distance_accuracy_value', 'NONE');
#72 = DIRECTION ( 'NONE',  ( 1.000000000000000000, -0.000000000000000000, -0.000000000000000000 ) ) ;
#73 = CARTESIAN_POINT ( 'NONE',  ( 0.000000000000000000, 7.654042494670954648E-16, 6.249999999999997335 ) ) ;
#74 = DIRECTION ( 'NONE',  ( 1.000000000000000000, -0.000000000000000000, -0.000000000000000000 ) ) ;
#75 = CIRCLE ( 'NONE', #148, 6.249999999999996447 ) ;
#76 = FACE_OUTER_BOUND ( 'NONE', #248, .T. ) ;
#77 = CARTESIAN_POINT ( 'NONE',  ( -12.00000000000000000, 0.000000000000000000, 0.000000000000000000 ) ) ;
#78 = CARTESIAN_POINT ( 'NONE',  ( 0.000000000000000000, 0.000000000000000000, 0.000000000000000000 ) ) ;
#79 = AXIS2_PLACEMENT_3D ( 'NONE', #280, #139, #31 ) ;
#80 = CARTESIAN_POINT ( 'NONE',  ( -0.02077083154050467229, 0.000000000000000000, -6.529229168459494304 ) ) ;
#81 = EDGE_CURVE ( 'NONE', #1, #251, #250, .T. ) ;
#82 = APPROVAL_STATUS ( 'not_yet_approved' ) ;
#83 = APPROVAL_PERSON_ORGANIZATION ( #241, #5, #127 ) ;
#84 = COORDINATED_UNIVERSAL_TIME_OFFSET ( 1, 0, .AHEAD. ) ;
#85 = APPROVAL_DATE_TIME ( #224, #5 ) ;
#86 = APPROVAL_ROLE ( '' ) ;
#87 = MECHANICAL_CONTEXT ( 'NONE', #102, 'mechanical' ) ;
#88 = ORIENTED_EDGE ( 'NONE', *, *, #70, .T. ) ;
#89 = ORIENTED_EDGE ( 'NONE', *, *, #211, .F. ) ;
#90 = AXIS2_PLACEMENT_3D ( 'NONE', #30, #117, #120 ) ;
#91 = ORIENTED_EDGE ( 'NONE', *, *, #15, .F. ) ;
#92 = APPROVAL ( #39, 'NEURÈENÝ' ) ;
#93 = CIRCLE ( 'NONE', #79, 6.529229168459499633 ) ;
#94 = DIRECTION ( 'NONE',  ( -1.000000000000000000, -0.000000000000000000, -0.000000000000000000 ) ) ;
#95 = ORIENTED_EDGE ( 'NONE', *, *, #278, .T. ) ;
#96 = EDGE_CURVE ( 'NONE', #181, #251, #75, .T. ) ;
#97 = CARTESIAN_POINT ( 'NONE',  ( -10.67999999999999794, -1.307922781489373189E-15, 0.000000000000000000 ) ) ;
#98 = DIRECTION ( 'NONE',  ( -1.387778780781445676E-16, 1.000000000000000000, 0.000000000000000000 ) ) ;
#99 = LINE ( 'NONE', #216, #13 ) ;
#100 = DIRECTION ( 'NONE',  ( 0.000000000000000000, 0.000000000000000000, -1.000000000000000000 ) ) ;
#101 = SECURITY_CLASSIFICATION ( '', '', #149 ) ;
#102 = APPLICATION_CONTEXT ( 'configuration controlled 3d designs of mechanical parts and assemblies' ) ;
#103 = DIRECTION ( 'NONE',  ( 1.000000000000000000, 0.000000000000000000, 0.000000000000000000 ) ) ;
#104 = DIRECTION ( 'NONE',  ( 1.000000000000000000, -0.000000000000000000, -0.000000000000000000 ) ) ;
#105 = CIRCLE ( 'NONE', #189, 6.529229168459499633 ) ;
#106 = CARTESIAN_POINT ( 'NONE',  ( -0.3000000000000047629, 0.000000000000000000, -6.249999999999997335 ) ) ;
#107 = EDGE_CURVE ( 'NONE', #230, #68, #105, .T. ) ;
#108 = PRODUCT_DEFINITION_SHAPE ( 'NONE', 'NONE',  #252 ) ;
#109 = VECTOR ( 'NONE', #163, 999.9999999999998863 ) ;
#110 = ORIENTED_EDGE ( 'NONE', *, *, #133, .F. ) ;
#111 = ORIENTED_EDGE ( 'NONE', *, *, #278, .F. ) ;
#112 = CC_DESIGN_PERSON_AND_ORGANIZATION_ASSIGNMENT ( #289, #57, ( #58 ) ) ;
#113 = ORIENTED_EDGE ( 'NONE', *, *, #15, .T. ) ;
#114 = DIRECTION ( 'NONE',  ( 0.5150380749100547106, 1.049727191138618326E-16, 0.8571673007021120005 ) ) ;
#115 = ADVANCED_FACE ( 'NONE', ( #118 ), #26, .T. ) ;
#116 = LINE ( 'NONE', #22, #242 ) ;
#117 = DIRECTION ( 'NONE',  ( 1.000000000000000000, 0.000000000000000000, 0.000000000000000000 ) ) ;
#118 = FACE_OUTER_BOUND ( 'NONE', #201, .T. ) ;
#119 = DIRECTION ( 'NONE',  ( -1.387778780781445676E-16, 1.000000000000000000, 0.000000000000000000 ) ) ;
#120 = DIRECTION ( 'NONE',  ( 0.000000000000000000, 0.000000000000000000, -1.000000000000000000 ) ) ;
#121 = DIRECTION ( 'NONE',  ( 0.000000000000000000, 0.000000000000000000, -1.000000000000000000 ) ) ;
#122 = CARTESIAN_POINT ( 'NONE',  ( -12.00000000000000000, 0.000000000000000000, 0.000000000000000000 ) ) ;
#123 = DIRECTION ( 'NONE',  ( 1.000000000000000000, -0.000000000000000000, -0.000000000000000000 ) ) ;
#124 = LOCAL_TIME ( 11, 24, 19.00000000000000000, #84 ) ;
#125 = EDGE_CURVE ( 'NONE', #136, #227, #288, .T. ) ;
#126 = CARTESIAN_POINT ( 'NONE',  ( -0.3000000000000047629, 0.000000000000000000, -6.249999999999997335 ) ) ;
#127 = APPROVAL_ROLE ( '' ) ;
#128 = ORIENTED_EDGE ( 'NONE', *, *, #50, .T. ) ;
#129 = CONICAL_SURFACE ( 'NONE', #40, 6.249999999999996447, 1.029744258676653867 ) ;
#130 = COORDINATED_UNIVERSAL_TIME_OFFSET ( 1, 0, .AHEAD. ) ;
#131 = APPLICATION_CONTEXT ( 'configuration controlled 3d designs of mechanical parts and assemblies' ) ;
#132 = DIRECTION ( 'NONE',  ( -1.000000000000000000, -0.000000000000000000, -0.000000000000000000 ) ) ;
#133 = EDGE_CURVE ( 'NONE', #251, #181, #55, .T. ) ;
#134 = SHAPE_DEFINITION_REPRESENTATION ( #108, #271 ) ;
#135 = ORIENTED_EDGE ( 'NONE', *, *, #96, .T. ) ;
#136 = VERTEX_POINT ( 'NONE', #54 ) ;
#137 = DIRECTION ( 'NONE',  ( -0.000000000000000000, 0.000000000000000000, -1.000000000000000000 ) ) ;
#138 = EDGE_LOOP ( 'NONE', ( #65, #66, #19, #44, #91 ) ) ;
#139 = DIRECTION ( 'NONE',  ( -1.000000000000000000, -0.000000000000000000, -0.000000000000000000 ) ) ;
#140 = CYLINDRICAL_SURFACE ( 'NONE', #219, 6.249999999999997335 ) ;
#141 = FACE_OUTER_BOUND ( 'NONE', #193, .T. ) ;
#142 = CARTESIAN_POINT ( 'NONE',  ( -0.02077083154050467229, 0.000000000000000000, 0.000000000000000000 ) ) ;
#143 = DIRECTION ( 'NONE',  ( 1.000000000000000000, -0.000000000000000000, -0.000000000000000000 ) ) ;
#144 = CONICAL_SURFACE ( 'NONE', #194, 6.249999999999997335, 0.7853981633974425058 ) ;
#145 = EDGE_CURVE ( 'NONE', #227, #136, #151, .T. ) ;
#146 = CC_DESIGN_DATE_AND_TIME_ASSIGNMENT ( #60, #290, ( #252 ) ) ;
#147 = LOCAL_TIME ( 11, 24, 19.00000000000000000, #61 ) ;
#148 = AXIS2_PLACEMENT_3D ( 'NONE', #122, #180, #276 ) ;
#149 = SECURITY_CLASSIFICATION_LEVEL ( 'unclassified' ) ;
#150 = CALENDAR_DATE ( 2022, 8, 6 ) ;
#151 = CIRCLE ( 'NONE', #223, 6.249999999999997335 ) ;
#152 = EDGE_CURVE ( 'NONE', #68, #266, #263, .T. ) ;
#153 = PERSON_AND_ORGANIZATION ( #202, #170 ) ;
#154 = ORIENTED_EDGE ( 'NONE', *, *, #238, .T. ) ;
#155 = CARTESIAN_POINT ( 'NONE',  ( -15.75537886892225359, -3.865596169102312025E-15, 0.000000000000000000 ) ) ;
#156 = VECTOR ( 'NONE', #239, 999.9999999999998863 ) ;
#157 = CC_DESIGN_SECURITY_CLASSIFICATION ( #101, ( #58 ) ) ;
#158 = ORIENTED_EDGE ( 'NONE', *, *, #125, .F. ) ;
#159 = CARTESIAN_POINT ( 'NONE',  ( -0.3000000000000047629, 0.000000000000000000, 0.000000000000000000 ) ) ;
#160 = SPHERICAL_SURFACE ( 'NONE', #169, 12.50000000000000000 ) ;
#161 = CARTESIAN_POINT ( 'NONE',  ( -0.02077083154050553965, -6.529229168459500521, 7.995999602053463349E-16 ) ) ;
#162 = APPROVAL_PERSON_ORGANIZATION ( #272, #270, #86 ) ;
#163 = DIRECTION ( 'NONE',  ( 0.7071067811865515695, 8.659560562354882322E-17, 0.7071067811865435759 ) ) ;
#164 = AXIS2_PLACEMENT_3D ( 'NONE', #97, #137, #8 ) ;
#165 = DIRECTION ( 'NONE',  ( 0.000000000000000000, 0.000000000000000000, -1.000000000000000000 ) ) ;
#166 = CARTESIAN_POINT ( 'NONE',  ( -12.00000000000000000, 0.000000000000000000, 0.000000000000000000 ) ) ;
#167 = DIRECTION ( 'NONE',  ( 1.000000000000000000, 0.000000000000000000, 0.000000000000000000 ) ) ;
#168 = ADVANCED_FACE ( 'NONE', ( #76 ), #160, .T. ) ;
#169 = AXIS2_PLACEMENT_3D ( 'NONE', #217, #10, #119 ) ;
#170 = ORGANIZATION ( 'NEURÈENÝ', 'NEURÈENÝ', '' ) ;
#171 = PERSON_AND_ORGANIZATION_ROLE ( 'design_owner' ) ;
#172 = DATE_TIME_ROLE ( 'classification_date' ) ;
#173 = APPLICATION_PROTOCOL_DEFINITION ( 'international standard', 'config_control_design', 1994, #102 ) ;
#174 = ADVANCED_FACE ( 'NONE', ( #261 ), #144, .F. ) ;
#175 = PERSON_AND_ORGANIZATION_ROLE ( 'design_supplier' ) ;
#176 = FACE_OUTER_BOUND ( 'NONE', #184, .T. ) ;
#177 = COORDINATED_UNIVERSAL_TIME_OFFSET ( 1, 0, .AHEAD. ) ;
#178 = EDGE_LOOP ( 'NONE', ( #47, #16, #295 ) ) ;
#179 = ORIENTED_EDGE ( 'NONE', *, *, #145, .T. ) ;
#180 = DIRECTION ( 'NONE',  ( 1.000000000000000000, -0.000000000000000000, -0.000000000000000000 ) ) ;
#181 = VERTEX_POINT ( 'NONE', #49 ) ;
#182 = CIRCLE ( 'NONE', #210, 12.50000000000000000 ) ;
#183 = DIRECTION ( 'NONE',  ( 0.000000000000000000, 0.000000000000000000, -1.000000000000000000 ) ) ;
#184 = EDGE_LOOP ( 'NONE', ( #209, #45, #222, #179 ) ) ;
#185 = EDGE_CURVE ( 'NONE', #220, #230, #93, .T. ) ;
#186 = DIRECTION ( 'NONE',  ( 1.000000000000000000, 0.000000000000000000, 0.000000000000000000 ) ) ;
#187 = APPROVAL_PERSON_ORGANIZATION ( #36, #92, #200 ) ;
#188 = CARTESIAN_POINT ( 'NONE',  ( -0.3000000000000047629, 7.654042494670952676E-16, 6.249999999999997335 ) ) ;
#189 = AXIS2_PLACEMENT_3D ( 'NONE', #208, #94, #183 ) ;
#190 =( NAMED_UNIT ( * ) SI_UNIT ( $, .STERADIAN. ) SOLID_ANGLE_UNIT ( ) );
#191 = FACE_OUTER_BOUND ( 'NONE', #225, .T. ) ;
#192 = PRODUCT_RELATED_PRODUCT_CATEGORY ( 'detail', '', ( #33 ) ) ;
#193 = EDGE_LOOP ( 'NONE', ( #204, #207, #135 ) ) ;
#194 = AXIS2_PLACEMENT_3D ( 'NONE', #253, #186, #254 ) ;
#195 = PERSON_AND_ORGANIZATION ( #202, #170 ) ;
#196 = PERSON_AND_ORGANIZATION ( #202, #170 ) ;
#197 = DIRECTION ( 'NONE',  ( 1.000000000000000000, 0.000000000000000000, 0.000000000000000000 ) ) ;
#198 = ADVANCED_FACE ( 'NONE', ( #258 ), #32, .F. ) ;
#199 = CALENDAR_DATE ( 2022, 8, 6 ) ;
#200 = APPROVAL_ROLE ( '' ) ;
#201 = EDGE_LOOP ( 'NONE', ( #25, #95, #240, #113 ) ) ;
#202 = PERSON ( 'NEURÈENÝ', 'NEURÈENÝ', 'NEURÈENÝ', ('NEURÈENÝ'), ('NEURÈENÝ'), ('NEURÈENÝ') ) ;
#203 = CC_DESIGN_APPROVAL ( #92, ( #252 ) ) ;
#204 = ORIENTED_EDGE ( 'NONE', *, *, #81, .F. ) ;
#205 = VECTOR ( 'NONE', #114, 1000.000000000000000 ) ;
#206 = CARTESIAN_POINT ( 'NONE',  ( -23.17999999999999972, -2.073327030956469245E-15, 0.000000000000000000 ) ) ;
#207 = ORIENTED_EDGE ( 'NONE', *, *, #11, .T. ) ;
#208 = CARTESIAN_POINT ( 'NONE',  ( -0.02077083154050467229, 0.000000000000000000, 0.000000000000000000 ) ) ;
#209 = ORIENTED_EDGE ( 'NONE', *, *, #50, .F. ) ;
#210 = AXIS2_PLACEMENT_3D ( 'NONE', #286, #9, #259 ) ;
#211 = EDGE_CURVE ( 'NONE', #181, #227, #99, .T. ) ;
#212 = CARTESIAN_POINT ( 'NONE',  ( -0.3000000000000047629, 0.000000000000000000, 0.000000000000000000 ) ) ;
#213 = DIRECTION ( 'NONE',  ( 0.000000000000000000, 0.000000000000000000, -1.000000000000000000 ) ) ;
#214 = CARTESIAN_POINT ( 'NONE',  ( -0.02077083154050467229, 7.995999602053452502E-16, 6.529229168459494304 ) ) ;
#215 = AXIS2_PLACEMENT_3D ( 'NONE', #78, #74, #165 ) ;
#216 = CARTESIAN_POINT ( 'NONE',  ( 0.000000000000000000, 0.000000000000000000, -6.249999999999997335 ) ) ;
#217 = CARTESIAN_POINT ( 'NONE',  ( -10.67999999999999794, -1.307922781489373189E-15, 0.000000000000000000 ) ) ;
#218 = DIRECTION ( 'NONE',  ( 0.000000000000000000, 0.000000000000000000, -1.000000000000000000 ) ) ;
#219 = AXIS2_PLACEMENT_3D ( 'NONE', #255, #72, #213 ) ;
#220 = VERTEX_POINT ( 'NONE', #56 ) ;
#221 = CC_DESIGN_PERSON_AND_ORGANIZATION_ASSIGNMENT ( #195, #171, ( #33 ) ) ;
#222 = ORIENTED_EDGE ( 'NONE', *, *, #211, .T. ) ;
#223 = AXIS2_PLACEMENT_3D ( 'NONE', #212, #167, #218 ) ;
#224 = DATE_AND_TIME ( #150, #147 ) ;
#225 = EDGE_LOOP ( 'NONE', ( #110, #128, #277, #89 ) ) ;
#226 = COORDINATED_UNIVERSAL_TIME_OFFSET ( 1, 0, .AHEAD. ) ;
#227 = VERTEX_POINT ( 'NONE', #106 ) ;
#228 = ORIENTED_EDGE ( 'NONE', *, *, #107, .F. ) ;
#229 = CLOSED_SHELL ( 'NONE', ( #63, #287, #198, #115, #168, #264, #41, #174 ) ) ;
#230 = VERTEX_POINT ( 'NONE', #80 ) ;
#231 = DESIGN_CONTEXT ( 'detailed design', #131, 'design' ) ;
#232 = EDGE_CURVE ( 'NONE', #227, #230, #52, .T. ) ;
#233 = CARTESIAN_POINT ( 'NONE',  ( -10.67999999999999794, -1.307922781489373189E-15, 0.000000000000000000 ) ) ;
#234 = FACE_OUTER_BOUND ( 'NONE', #59, .T. ) ;
#235 = DIRECTION ( 'NONE',  ( 1.000000000000000000, -0.000000000000000000, -0.000000000000000000 ) ) ;
#236 =( LENGTH_UNIT ( ) NAMED_UNIT ( * ) SI_UNIT ( .MILLI., .METRE. ) );
#237 = AXIS2_PLACEMENT_3D ( 'NONE', #159, #103, #283 ) ;
#238 = EDGE_CURVE ( 'NONE', #136, #266, #34, .T. ) ;
#239 = DIRECTION ( 'NONE',  ( 0.7071067811865515695, 0.000000000000000000, -0.7071067811865435759 ) ) ;
#240 = ORIENTED_EDGE ( 'NONE', *, *, #152, .T. ) ;
#241 = PERSON_AND_ORGANIZATION ( #202, #170 ) ;
#242 = VECTOR ( 'NONE', #279, 1000.000000000000000 ) ;
#243 = PERSON_AND_ORGANIZATION ( #202, #170 ) ;
#244 = APPROVAL_STATUS ( 'not_yet_approved' ) ;
#245 = AXIS2_PLACEMENT_3D ( 'NONE', #166, #260, #29 ) ;
#246 = DATE_AND_TIME ( #293, #292 ) ;
#247 = DATE_AND_TIME ( #199, #124 ) ;
#248 = EDGE_LOOP ( 'NONE', ( #111, #88, #273, #3 ) ) ;
#249 = CC_DESIGN_APPROVAL ( #5, ( #58 ) ) ;
#250 = LINE ( 'NONE', #53, #205 ) ;
#251 = VERTEX_POINT ( 'NONE', #256 ) ;
#252 = PRODUCT_DEFINITION ( 'NEZNÁMÝ', '', #58, #231 ) ;
#253 = CARTESIAN_POINT ( 'NONE',  ( -0.3000000000000047629, 0.000000000000000000, 0.000000000000000000 ) ) ;
#254 = DIRECTION ( 'NONE',  ( 0.000000000000000000, 0.000000000000000000, -1.000000000000000000 ) ) ;
#255 = CARTESIAN_POINT ( 'NONE',  ( 0.000000000000000000, 0.000000000000000000, 0.000000000000000000 ) ) ;
#256 = CARTESIAN_POINT ( 'NONE',  ( -12.00000000000000000, 7.654042494670953662E-16, 6.249999999999996447 ) ) ;
#257 = CIRCLE ( 'NONE', #164, 12.50000000000000000 ) ;
#258 = FACE_OUTER_BOUND ( 'NONE', #178, .T. ) ;
#259 = DIRECTION ( 'NONE',  ( 0.000000000000000000, -1.000000000000000000, 1.224646799147353207E-16 ) ) ;
#260 = DIRECTION ( 'NONE',  ( 1.000000000000000000, -0.000000000000000000, -0.000000000000000000 ) ) ;
#261 = FACE_OUTER_BOUND ( 'NONE', #138, .T. ) ;
#262 = CC_DESIGN_DATE_AND_TIME_ASSIGNMENT ( #247, #172, ( #101 ) ) ;
#263 = CIRCLE ( 'NONE', #28, 6.529229168459499633 ) ;
#264 = ADVANCED_FACE ( 'NONE', ( #141 ), #129, .F. ) ;
#265 = DIRECTION ( 'NONE',  ( 0.000000000000000000, 0.000000000000000000, -1.000000000000000000 ) ) ;
#266 = VERTEX_POINT ( 'NONE', #214 ) ;
#267 = CC_DESIGN_APPROVAL ( #270, ( #101 ) ) ;
#268 = PERSON_AND_ORGANIZATION_ROLE ( 'creator' ) ;
#269 = CARTESIAN_POINT ( 'NONE',  ( 0.000000000000000000, 0.000000000000000000, 0.000000000000000000 ) ) ;
#270 = APPROVAL ( #244, 'NEURÈENÝ' ) ;
#271 = ADVANCED_BREP_SHAPE_REPRESENTATION ( '0100000000020935_10_A_0221-2512', ( #51, #46 ), #281 ) ;
#272 = PERSON_AND_ORGANIZATION ( #202, #170 ) ;
#273 = ORIENTED_EDGE ( 'NONE', *, *, #185, .T. ) ;
#274 = VECTOR ( 'NONE', #143, 1000.000000000000000 ) ;
#275 = ORIENTED_EDGE ( 'NONE', *, *, #232, .F. ) ;
#276 = DIRECTION ( 'NONE',  ( 0.000000000000000000, 0.000000000000000000, -1.000000000000000000 ) ) ;
#277 = ORIENTED_EDGE ( 'NONE', *, *, #125, .T. ) ;
#278 = EDGE_CURVE ( 'NONE', #38, #68, #182, .T. ) ;
#279 = DIRECTION ( 'NONE',  ( 0.5150380749100547106, 0.000000000000000000, -0.8571673007021120005 ) ) ;
#280 = CARTESIAN_POINT ( 'NONE',  ( -0.02077083154050467229, 0.000000000000000000, 0.000000000000000000 ) ) ;
#281 =( GEOMETRIC_REPRESENTATION_CONTEXT ( 3 ) GLOBAL_UNCERTAINTY_ASSIGNED_CONTEXT ( ( #71 ) ) GLOBAL_UNIT_ASSIGNED_CONTEXT ( ( #236, #12, #190 ) ) REPRESENTATION_CONTEXT ( 'NONE', 'WORKASPACE' ) );
#282 = CARTESIAN_POINT ( 'NONE',  ( -12.00000000000000000, 0.000000000000000000, 0.000000000000000000 ) ) ;
#283 = DIRECTION ( 'NONE',  ( 0.000000000000000000, 0.000000000000000000, -1.000000000000000000 ) ) ;
#284 = AXIS2_PLACEMENT_3D ( 'NONE', #69, #132, #18 ) ;
#285 = CYLINDRICAL_SURFACE ( 'NONE', #215, 6.249999999999997335 ) ;
#286 = CARTESIAN_POINT ( 'NONE',  ( -10.67999999999999794, -1.307922781489373189E-15, 0.000000000000000000 ) ) ;
#287 = ADVANCED_FACE ( 'NONE', ( #191 ), #285, .F. ) ;
#288 = CIRCLE ( 'NONE', #237, 6.249999999999997335 ) ;
#289 = PERSON_AND_ORGANIZATION ( #202, #170 ) ;
#290 = DATE_TIME_ROLE ( 'creation_date' ) ;
#291 = DATE_AND_TIME ( #42, #35 ) ;
#292 = LOCAL_TIME ( 11, 24, 19.00000000000000000, #130 ) ;
#293 = CALENDAR_DATE ( 2022, 8, 6 ) ;
#294 = APPROVAL_DATE_TIME ( #291, #92 ) ;
#295 = ORIENTED_EDGE ( 'NONE', *, *, #133, .T. ) ;
ENDSEC;
END-ISO-10303-21;
