ISO-10303-21;
HEADER;
FILE_DESCRIPTION (( 'STEP AP203' ),
    '1' );
FILE_NAME ('A_0221-2514.STEP',
    '2021-05-18T08:17:57',
    ( '' ),
    ( '' ),
    'SwSTEP 2.0',
    'SolidWorks 2019',
    '' );
FILE_SCHEMA (( 'CONFIG_CONTROL_DESIGN' ));
ENDSEC;

DATA;
#1 = CARTESIAN_POINT ( 'NONE',  ( 0.000000000000000000, 0.000000000000000000, 0.000000000000000000 ) ) ;
#2 = CC_DESIGN_APPROVAL ( #177, ( #78 ) ) ;
#3 = AXIS2_PLACEMENT_3D ( 'NONE', #136, #241, #24 ) ;
#4 = DATE_AND_TIME ( #65, #224 ) ;
#5 = PERSON ( 'UNSPECIFIED', 'UNSPECIFIED', 'UNSPECIFIED', ('UNSPECIFIED'), ('UNSPECIFIED'), ('UNSPECIFIED') ) ;
#6 = EDGE_CURVE ( 'NONE', #276, #119, #129, .T. ) ;
#7 = CYLINDRICAL_SURFACE ( 'NONE', #3, 7.149999999999997691 ) ;
#8 = DIRECTION ( 'NONE',  ( -1.000000000000000000, 0.000000000000000000, 0.000000000000000000 ) ) ;
#9 = CC_DESIGN_APPROVAL ( #158, ( #221 ) ) ;
#10 = CARTESIAN_POINT ( 'NONE',  ( -14.69999999999999929, 0.000000000000000000, 0.000000000000000000 ) ) ;
#11 = ORIENTED_EDGE ( 'NONE', *, *, #298, .F. ) ;
#12 = DIRECTION ( 'NONE',  ( 0.000000000000000000, 0.000000000000000000, -1.000000000000000000 ) ) ;
#13 = VERTEX_POINT ( 'NONE', #297 ) ;
#14 = APPROVAL_PERSON_ORGANIZATION ( #303, #200, #20 ) ;
#15 = COORDINATED_UNIVERSAL_TIME_OFFSET ( 1, 0, .AHEAD. ) ;
#16 = ORIENTED_EDGE ( 'NONE', *, *, #91, .T. ) ;
#17 = DIRECTION ( 'NONE',  ( -1.000000000000000000, -3.469446951953614189E-18, -0.000000000000000000 ) ) ;
#18 = ADVANCED_FACE ( 'NONE', ( #19 ), #206, .T. ) ;
#19 = FACE_OUTER_BOUND ( 'NONE', #146, .T. ) ;
#20 = APPROVAL_ROLE ( '' ) ;
#21 = DATE_AND_TIME ( #304, #23 ) ;
#22 = DIRECTION ( 'NONE',  ( 0.000000000000000000, 1.000000000000000000, 0.000000000000000000 ) ) ;
#23 = LOCAL_TIME ( 10, 17, 57.00000000000000000, #181 ) ;
#24 = DIRECTION ( 'NONE',  ( 0.000000000000000000, 0.000000000000000000, -1.000000000000000000 ) ) ;
#25 = ADVANCED_FACE ( 'NONE', ( #80 ), #64, .F. ) ;
#26 = CARTESIAN_POINT ( 'NONE',  ( -10.67999999999999794, -1.307922781489373189E-15, 0.000000000000000000 ) ) ;
#27 = DIRECTION ( 'NONE',  ( 1.000000000000000000, -0.000000000000000000, -0.000000000000000000 ) ) ;
#28 = PRODUCT ( 'A_0221-2514', 'A_0221-2514', '', ( #270 ) ) ;
#29 = DIRECTION ( 'NONE',  ( 1.000000000000000000, -0.000000000000000000, -0.000000000000000000 ) ) ;
#30 = CIRCLE ( 'NONE', #62, 7.149999999999997691 ) ;
#31 = ORIENTED_EDGE ( 'NONE', *, *, #301, .F. ) ;
#32 = CARTESIAN_POINT ( 'NONE',  ( 0.000000000000000000, 0.000000000000000000, 0.000000000000000000 ) ) ;
#33 = VERTEX_POINT ( 'NONE', #79 ) ;
#34 = ORIENTED_EDGE ( 'NONE', *, *, #6, .F. ) ;
#35 = APPROVAL_DATE_TIME ( #250, #158 ) ;
#36 = CARTESIAN_POINT ( 'NONE',  ( -0.7268297585575952402, -1.273390785332925558E-15, 0.000000000000000000 ) ) ;
#37 = DIRECTION ( 'NONE',  ( 0.000000000000000000, 0.000000000000000000, -1.000000000000000000 ) ) ;
#38 = PERSON_AND_ORGANIZATION_ROLE ( 'classification_officer' ) ;
#39 = DATE_TIME_ROLE ( 'creation_date' ) ;
#40 = EDGE_CURVE ( 'NONE', #193, #222, #107, .T. ) ;
#41 = PERSON_AND_ORGANIZATION ( #5, #106 ) ;
#42 = CONICAL_SURFACE ( 'NONE', #244, 7.449999999999998401, 0.7853981633974482790 ) ;
#43 = DATE_TIME_ROLE ( 'classification_date' ) ;
#44 = ADVANCED_FACE ( 'NONE', ( #176 ), #42, .F. ) ;
#45 = CC_DESIGN_PERSON_AND_ORGANIZATION_ASSIGNMENT ( #214, #38, ( #240 ) ) ;
#46 = AXIS2_PLACEMENT_3D ( 'NONE', #189, #238, #22 ) ;
#47 = DIRECTION ( 'NONE',  ( -1.000000000000000000, -3.469446951953614189E-18, -0.000000000000000000 ) ) ;
#48 = CARTESIAN_POINT ( 'NONE',  ( -0.7268297585575952402, 0.000000000000000000, 0.000000000000000000 ) ) ;
#49 = DIRECTION ( 'NONE',  ( 0.000000000000000000, 0.000000000000000000, -1.000000000000000000 ) ) ;
#50 = ORIENTED_EDGE ( 'NONE', *, *, #265, .T. ) ;
#51 = EDGE_LOOP ( 'NONE', ( #11, #218, #50 ) ) ;
#52 = AXIS2_PLACEMENT_3D ( 'NONE', #160, #47, #139 ) ;
#53 =( NAMED_UNIT ( * ) PLANE_ANGLE_UNIT ( ) SI_UNIT ( $, .RADIAN. ) );
#54 = ADVANCED_FACE ( 'NONE', ( #180 ), #185, .F. ) ;
#55 = DIRECTION ( 'NONE',  ( 0.000000000000000000, 0.000000000000000000, 1.000000000000000000 ) ) ;
#56 = VERTEX_POINT ( 'NONE', #260 ) ;
#57 = DIRECTION ( 'NONE',  ( 0.000000000000000000, 0.000000000000000000, 1.000000000000000000 ) ) ;
#58 = VERTEX_POINT ( 'NONE', #264 ) ;
#59 = DIRECTION ( 'NONE',  ( -1.387778780781445676E-16, 1.000000000000000000, 0.000000000000000000 ) ) ;
#60 = DIRECTION ( 'NONE',  ( 1.000000000000000000, -0.000000000000000000, -0.000000000000000000 ) ) ;
#61 = DIRECTION ( 'NONE',  ( 0.000000000000000000, 0.000000000000000000, -1.000000000000000000 ) ) ;
#62 = AXIS2_PLACEMENT_3D ( 'NONE', #120, #72, #12 ) ;
#63 = EDGE_CURVE ( 'NONE', #222, #193, #280, .T. ) ;
#64 = CONICAL_SURFACE ( 'NONE', #251, 7.149999999999996803, 1.029744258676653867 ) ;
#65 = CALENDAR_DATE ( 2021, 18, 5 ) ;
#66 = CARTESIAN_POINT ( 'NONE',  ( -0.7268297585575952402, 9.123618653647777215E-16, 7.449999999999998401 ) ) ;
#67 = PLANE ( 'NONE',  #116 ) ;
#68 = FACE_OUTER_BOUND ( 'NONE', #294, .T. ) ;
#69 = CC_DESIGN_PERSON_AND_ORGANIZATION_ASSIGNMENT ( #302, #257, ( #78 ) ) ;
#70 = LINE ( 'NONE', #66, #82 ) ;
#71 = ORIENTED_EDGE ( 'NONE', *, *, #298, .T. ) ;
#72 = DIRECTION ( 'NONE',  ( 1.000000000000000000, -0.000000000000000000, -0.000000000000000000 ) ) ;
#73 = DIRECTION ( 'NONE',  ( 0.5150380749100547106, 0.000000000000000000, -0.8571673007021120005 ) ) ;
#74 = VERTEX_POINT ( 'NONE', #191 ) ;
#75 = CARTESIAN_POINT ( 'NONE',  ( -0.7268297585575952402, 0.000000000000000000, 0.000000000000000000 ) ) ;
#76 = APPROVAL_ROLE ( '' ) ;
#77 = PERSON_AND_ORGANIZATION_ROLE ( 'design_owner' ) ;
#78 = PRODUCT_DEFINITION_FORMATION_WITH_SPECIFIED_SOURCE ( 'ANY', '', #28, .NOT_KNOWN. ) ;
#79 = CARTESIAN_POINT ( 'NONE',  ( -0.7268297585575952402, 9.123618653647777215E-16, 7.449999999999998401 ) ) ;
#80 = FACE_OUTER_BOUND ( 'NONE', #245, .T. ) ;
#81 = ADVANCED_FACE ( 'NONE', ( #113 ), #7, .F. ) ;
#82 = VECTOR ( 'NONE', #188, 1000.000000000000000 ) ;
#83 = CC_DESIGN_SECURITY_CLASSIFICATION ( #240, ( #78 ) ) ;
#84 = CC_DESIGN_DATE_AND_TIME_ASSIGNMENT ( #184, #39, ( #221 ) ) ;
#85 = EDGE_CURVE ( 'NONE', #13, #58, #131, .T. ) ;
#86 = DIRECTION ( 'NONE',  ( -0.000000000000000000, 0.000000000000000000, -1.000000000000000000 ) ) ;
#87 = CARTESIAN_POINT ( 'NONE',  ( -0.7268297585575961284, -7.562036904489781719, 9.260824290117570737E-16 ) ) ;
#88 = DIRECTION ( 'NONE',  ( 1.000000000000000000, -0.000000000000000000, -0.000000000000000000 ) ) ;
#89 = ORIENTED_EDGE ( 'NONE', *, *, #210, .F. ) ;
#90 = ORIENTED_EDGE ( 'NONE', *, *, #140, .F. ) ;
#91 = EDGE_CURVE ( 'NONE', #56, #33, #175, .T. ) ;
#92 = LINE ( 'NONE', #94, #290 ) ;
#93 = ORIENTED_EDGE ( 'NONE', *, *, #210, .T. ) ;
#94 = CARTESIAN_POINT ( 'NONE',  ( -14.69999999999999929, 0.000000000000000000, -7.149999999999996803 ) ) ;
#95 = ORIENTED_EDGE ( 'NONE', *, *, #204, .F. ) ;
#96 = CLOSED_SHELL ( 'NONE', ( #54, #18, #118, #81, #98, #25, #228, #235, #44 ) ) ;
#97 = APPLICATION_PROTOCOL_DEFINITION ( 'international standard', 'config_control_design', 1994, #186 ) ;
#98 = ADVANCED_FACE ( 'NONE', ( #68 ), #137, .F. ) ;
#99 = CC_DESIGN_PERSON_AND_ORGANIZATION_ASSIGNMENT ( #41, #183, ( #78 ) ) ;
#100 = VERTEX_POINT ( 'NONE', #262 ) ;
#101 = AXIS2_PLACEMENT_3D ( 'NONE', #1, #29, #110 ) ;
#102 = CARTESIAN_POINT ( 'NONE',  ( -14.69999999999999929, 8.756224613903571573E-16, 7.149999999999996803 ) ) ;
#103 = LOCAL_TIME ( 10, 17, 57.00000000000000000, #15 ) ;
#104 = ORIENTED_EDGE ( 'NONE', *, *, #40, .F. ) ;
#105 = DATE_AND_TIME ( #156, #279 ) ;
#106 = ORGANIZATION ( 'UNSPECIFIED', 'UNSPECIFIED', '' ) ;
#107 = CIRCLE ( 'NONE', #173, 7.562036904489780831 ) ;
#108 = EDGE_CURVE ( 'NONE', #74, #222, #209, .T. ) ;
#109 = CIRCLE ( 'NONE', #239, 12.50000000000000000 ) ;
#110 = DIRECTION ( 'NONE',  ( 0.000000000000000000, 0.000000000000000000, -1.000000000000000000 ) ) ;
#111 = CALENDAR_DATE ( 2021, 18, 5 ) ;
#112 = CARTESIAN_POINT ( 'NONE',  ( -1.026829758557596062, 0.000000000000000000, 0.000000000000000000 ) ) ;
#113 = FACE_OUTER_BOUND ( 'NONE', #145, .T. ) ;
#114 = DIRECTION ( 'NONE',  ( 0.000000000000000000, 0.000000000000000000, -1.000000000000000000 ) ) ;
#115 = ORIENTED_EDGE ( 'NONE', *, *, #85, .F. ) ;
#116 = AXIS2_PLACEMENT_3D ( 'NONE', #271, #202, #229 ) ;
#117 = LINE ( 'NONE', #287, #273 ) ;
#118 = ADVANCED_FACE ( 'NONE', ( #162 ), #255, .F. ) ;
#119 = VERTEX_POINT ( 'NONE', #211 ) ;
#120 = CARTESIAN_POINT ( 'NONE',  ( -1.026829758557596062, 0.000000000000000000, 0.000000000000000000 ) ) ;
#121 = CC_DESIGN_DATE_AND_TIME_ASSIGNMENT ( #105, #43, ( #240 ) ) ;
#122 = DIRECTION ( 'NONE',  ( 1.000000000000000000, 0.000000000000000000, 0.000000000000000000 ) ) ;
#123 = ORIENTED_EDGE ( 'NONE', *, *, #248, .F. ) ;
#124 = CARTESIAN_POINT ( 'NONE',  ( -14.69999999999999929, 0.000000000000000000, 0.000000000000000000 ) ) ;
#125 = PERSON_AND_ORGANIZATION ( #5, #106 ) ;
#126 = DIRECTION ( 'NONE',  ( 0.000000000000000000, 1.000000000000000000, 0.000000000000000000 ) ) ;
#127 =( LENGTH_UNIT ( ) NAMED_UNIT ( * ) SI_UNIT ( .MILLI., .METRE. ) );
#128 = DIRECTION ( 'NONE',  ( 0.000000000000000000, 0.000000000000000000, 1.000000000000000000 ) ) ;
#129 = LINE ( 'NONE', #102, #179 ) ;
#130 = CC_DESIGN_PERSON_AND_ORGANIZATION_ASSIGNMENT ( #208, #77, ( #28 ) ) ;
#131 = CIRCLE ( 'NONE', #167, 7.149999999999997691 ) ;
#132 = APPROVAL_ROLE ( '' ) ;
#133 = SECURITY_CLASSIFICATION_LEVEL ( 'unclassified' ) ;
#134 = AXIS2_PLACEMENT_3D ( 'NONE', #299, #128, #232 ) ;
#135 = COORDINATED_UNIVERSAL_TIME_OFFSET ( 1, 0, .AHEAD. ) ;
#136 = CARTESIAN_POINT ( 'NONE',  ( 0.000000000000000000, 0.000000000000000000, 0.000000000000000000 ) ) ;
#137 = CYLINDRICAL_SURFACE ( 'NONE', #101, 7.149999999999997691 ) ;
#138 = AXIS2_PLACEMENT_3D ( 'NONE', #32, #57, #122 ) ;
#139 = DIRECTION ( 'NONE',  ( 0.000000000000000000, 1.000000000000000000, 0.000000000000000000 ) ) ;
#140 = EDGE_CURVE ( 'NONE', #74, #193, #109, .T. ) ;
#141 = CARTESIAN_POINT ( 'NONE',  ( -0.7268297585575961284, 7.562036904489779054, 0.000000000000000000 ) ) ;
#142 = EDGE_LOOP ( 'NONE', ( #219, #243, #269, #89 ) ) ;
#143 =( NAMED_UNIT ( * ) SI_UNIT ( $, .STERADIAN. ) SOLID_ANGLE_UNIT ( ) );
#144 = AXIS2_PLACEMENT_3D ( 'NONE', #48, #27, #285 ) ;
#145 = EDGE_LOOP ( 'NONE', ( #151, #226, #252, #267 ) ) ;
#146 = EDGE_LOOP ( 'NONE', ( #90, #196, #205 ) ) ;
#147 = DIRECTION ( 'NONE',  ( 1.000000000000000000, -0.000000000000000000, -0.000000000000000000 ) ) ;
#148 = CALENDAR_DATE ( 2021, 18, 5 ) ;
#149 = VECTOR ( 'NONE', #242, 1000.000000000000000 ) ;
#150 = CARTESIAN_POINT ( 'NONE',  ( -18.99615342604705859, -4.652715697864111358E-15, 0.000000000000000000 ) ) ;
#151 = ORIENTED_EDGE ( 'NONE', *, *, #265, .F. ) ;
#152 = EDGE_CURVE ( 'NONE', #100, #13, #194, .T. ) ;
#153 = CARTESIAN_POINT ( 'NONE',  ( -0.7268297585575952402, 0.000000000000000000, 0.000000000000000000 ) ) ;
#154 = APPROVAL_PERSON_ORGANIZATION ( #159, #177, #132 ) ;
#155 =( GEOMETRIC_REPRESENTATION_CONTEXT ( 3 ) GLOBAL_UNCERTAINTY_ASSIGNED_CONTEXT ( ( #220 ) ) GLOBAL_UNIT_ASSIGNED_CONTEXT ( ( #127, #53, #143 ) ) REPRESENTATION_CONTEXT ( 'NONE', 'WORKASPACE' ) );
#156 = CALENDAR_DATE ( 2021, 18, 5 ) ;
#157 = FACE_OUTER_BOUND ( 'NONE', #289, .T. ) ;
#158 = APPROVAL ( #293, 'UNSPECIFIED' ) ;
#159 = PERSON_AND_ORGANIZATION ( #5, #106 ) ;
#160 = CARTESIAN_POINT ( 'NONE',  ( -0.7268297585575952402, -1.273390785332925558E-15, 0.000000000000000000 ) ) ;
#161 = AXIS2_PLACEMENT_3D ( 'NONE', #124, #147, #225 ) ;
#162 = FACE_OUTER_BOUND ( 'NONE', #51, .T. ) ;
#163 = EDGE_LOOP ( 'NONE', ( #174, #247, #168 ) ) ;
#164 = CARTESIAN_POINT ( 'NONE',  ( -10.67999999999999794, -1.307922781489373189E-15, 0.000000000000000000 ) ) ;
#165 = EDGE_LOOP ( 'NONE', ( #16, #263 ) ) ;
#166 = CIRCLE ( 'NONE', #296, 7.449999999999998401 ) ;
#167 = AXIS2_PLACEMENT_3D ( 'NONE', #112, #286, #114 ) ;
#168 = ORIENTED_EDGE ( 'NONE', *, *, #40, .T. ) ;
#169 = CARTESIAN_POINT ( 'NONE',  ( -14.69999999999999929, 0.000000000000000000, 0.000000000000000000 ) ) ;
#170 = ORIENTED_EDGE ( 'NONE', *, *, #190, .F. ) ;
#171 = COORDINATED_UNIVERSAL_TIME_OFFSET ( 1, 0, .AHEAD. ) ;
#172 = PRODUCT_RELATED_PRODUCT_CATEGORY ( 'detail', '', ( #28 ) ) ;
#173 = AXIS2_PLACEMENT_3D ( 'NONE', #36, #17, #126 ) ;
#174 = ORIENTED_EDGE ( 'NONE', *, *, #108, .F. ) ;
#175 = CIRCLE ( 'NONE', #46, 7.449999999999998401 ) ;
#176 = FACE_OUTER_BOUND ( 'NONE', #292, .T. ) ;
#177 = APPROVAL ( #300, 'UNSPECIFIED' ) ;
#178 = AXIS2_PLACEMENT_3D ( 'NONE', #164, #55, #59 ) ;
#179 = VECTOR ( 'NONE', #203, 1000.000000000000000 ) ;
#180 = FACE_OUTER_BOUND ( 'NONE', #142, .T. ) ;
#181 = COORDINATED_UNIVERSAL_TIME_OFFSET ( 1, 0, .AHEAD. ) ;
#182 = CIRCLE ( 'NONE', #213, 7.149999999999996803 ) ;
#183 = PERSON_AND_ORGANIZATION_ROLE ( 'design_supplier' ) ;
#184 = DATE_AND_TIME ( #111, #103 ) ;
#185 = CONICAL_SURFACE ( 'NONE', #144, 7.449999999999998401, 0.7853981633974482790 ) ;
#186 = APPLICATION_CONTEXT ( 'configuration controlled 3d designs of mechanical parts and assemblies' ) ;
#187 = CARTESIAN_POINT ( 'NONE',  ( 0.000000000000000000, 8.756224613903571573E-16, 7.149999999999997691 ) ) ;
#188 = DIRECTION ( 'NONE',  ( 0.7071067811865474617, 8.659560562354932858E-17, 0.7071067811865475727 ) ) ;
#189 = CARTESIAN_POINT ( 'NONE',  ( -0.7268297585575952402, 0.000000000000000000, 0.000000000000000000 ) ) ;
#190 = EDGE_CURVE ( 'NONE', #58, #33, #70, .T. ) ;
#191 = CARTESIAN_POINT ( 'NONE',  ( -23.17999999999999972, -2.073327030956469245E-15, 0.000000000000000000 ) ) ;
#192 = AXIS2_PLACEMENT_3D ( 'NONE', #10, #261, #49 ) ;
#193 = VERTEX_POINT ( 'NONE', #141 ) ;
#194 = LINE ( 'NONE', #215, #278 ) ;
#195 = ORIENTED_EDGE ( 'NONE', *, *, #152, .T. ) ;
#196 = ORIENTED_EDGE ( 'NONE', *, *, #108, .T. ) ;
#197 = ORIENTED_EDGE ( 'NONE', *, *, #248, .T. ) ;
#198 = DESIGN_CONTEXT ( 'detailed design', #186, 'design' ) ;
#199 = PERSON_AND_ORGANIZATION ( #5, #106 ) ;
#200 = APPROVAL ( #234, 'UNSPECIFIED' ) ;
#201 = ORIENTED_EDGE ( 'NONE', *, *, #63, .F. ) ;
#202 = DIRECTION ( 'NONE',  ( 1.000000000000000000, 3.469446951953614189E-18, 0.000000000000000000 ) ) ;
#203 = DIRECTION ( 'NONE',  ( 0.5150380749100547106, 1.049727191138618326E-16, 0.8571673007021120005 ) ) ;
#204 = EDGE_CURVE ( 'NONE', #119, #58, #284, .T. ) ;
#205 = ORIENTED_EDGE ( 'NONE', *, *, #63, .T. ) ;
#206 = SPHERICAL_SURFACE ( 'NONE', #134, 12.50000000000000000 ) ;
#207 = APPROVAL_DATE_TIME ( #4, #200 ) ;
#208 = PERSON_AND_ORGANIZATION ( #5, #106 ) ;
#209 = CIRCLE ( 'NONE', #212, 12.50000000000000000 ) ;
#210 = EDGE_CURVE ( 'NONE', #13, #56, #117, .T. ) ;
#211 = CARTESIAN_POINT ( 'NONE',  ( -14.69999999999999929, 8.756224613903571573E-16, 7.149999999999996803 ) ) ;
#212 = AXIS2_PLACEMENT_3D ( 'NONE', #26, #217, #258 ) ;
#213 = AXIS2_PLACEMENT_3D ( 'NONE', #169, #266, #246 ) ;
#214 = PERSON_AND_ORGANIZATION ( #5, #106 ) ;
#215 = CARTESIAN_POINT ( 'NONE',  ( 0.000000000000000000, 0.000000000000000000, -7.149999999999997691 ) ) ;
#216 = CARTESIAN_POINT ( 'NONE',  ( -10.67999999999999794, -1.307922781489373189E-15, 0.000000000000000000 ) ) ;
#217 = DIRECTION ( 'NONE',  ( -1.499759782661857608E-32, 1.224646799147353207E-16, 1.000000000000000000 ) ) ;
#218 = ORIENTED_EDGE ( 'NONE', *, *, #6, .T. ) ;
#219 = ORIENTED_EDGE ( 'NONE', *, *, #277, .F. ) ;
#220 = UNCERTAINTY_MEASURE_WITH_UNIT (LENGTH_MEASURE( 1.000000000000000082E-05 ), #127, 'distance_accuracy_value', 'NONE');
#221 = PRODUCT_DEFINITION ( 'UNKNOWN', '', #78, #198 ) ;
#222 = VERTEX_POINT ( 'NONE', #87 ) ;
#223 = MANIFOLD_SOLID_BREP ( 'Chamfer2', #96 ) ;
#224 = LOCAL_TIME ( 10, 17, 57.00000000000000000, #135 ) ;
#225 = DIRECTION ( 'NONE',  ( 0.000000000000000000, 0.000000000000000000, -1.000000000000000000 ) ) ;
#226 = ORIENTED_EDGE ( 'NONE', *, *, #204, .T. ) ;
#227 = PERSON_AND_ORGANIZATION_ROLE ( 'creator' ) ;
#228 = ADVANCED_FACE ( 'NONE', ( #236, #157 ), #67, .T. ) ;
#229 = DIRECTION ( 'NONE',  ( -3.469446951953614189E-18, 1.000000000000000000, 0.000000000000000000 ) ) ;
#230 = CARTESIAN_POINT ( 'NONE',  ( -14.69999999999999929, 0.000000000000000000, 0.000000000000000000 ) ) ;
#231 = CIRCLE ( 'NONE', #161, 7.149999999999996803 ) ;
#232 = DIRECTION ( 'NONE',  ( -1.387778780781445676E-16, 1.000000000000000000, 0.000000000000000000 ) ) ;
#233 = COORDINATED_UNIVERSAL_TIME_OFFSET ( 1, 0, .AHEAD. ) ;
#234 = APPROVAL_STATUS ( 'not_yet_approved' ) ;
#235 = ADVANCED_FACE ( 'NONE', ( #288 ), #275, .T. ) ;
#236 = FACE_BOUND ( 'NONE', #165, .T. ) ;
#237 = PRODUCT_DEFINITION_SHAPE ( 'NONE', 'NONE',  #221 ) ;
#238 = DIRECTION ( 'NONE',  ( -1.000000000000000000, -3.469446951953614189E-18, -0.000000000000000000 ) ) ;
#239 = AXIS2_PLACEMENT_3D ( 'NONE', #216, #86, #8 ) ;
#240 = SECURITY_CLASSIFICATION ( '', '', #133 ) ;
#241 = DIRECTION ( 'NONE',  ( 1.000000000000000000, -0.000000000000000000, -0.000000000000000000 ) ) ;
#242 = DIRECTION ( 'NONE',  ( 1.000000000000000000, -0.000000000000000000, -0.000000000000000000 ) ) ;
#243 = ORIENTED_EDGE ( 'NONE', *, *, #190, .T. ) ;
#244 = AXIS2_PLACEMENT_3D ( 'NONE', #153, #254, #37 ) ;
#245 = EDGE_LOOP ( 'NONE', ( #34, #71, #197 ) ) ;
#246 = DIRECTION ( 'NONE',  ( 0.000000000000000000, 0.000000000000000000, -1.000000000000000000 ) ) ;
#247 = ORIENTED_EDGE ( 'NONE', *, *, #140, .T. ) ;
#248 = EDGE_CURVE ( 'NONE', #100, #119, #182, .T. ) ;
#249 = LOCAL_TIME ( 10, 17, 57.00000000000000000, #171 ) ;
#250 = DATE_AND_TIME ( #148, #249 ) ;
#251 = AXIS2_PLACEMENT_3D ( 'NONE', #230, #60, #61 ) ;
#252 = ORIENTED_EDGE ( 'NONE', *, *, #277, .T. ) ;
#253 = APPLICATION_PROTOCOL_DEFINITION ( 'international standard', 'config_control_design', 1994, #283 ) ;
#254 = DIRECTION ( 'NONE',  ( 1.000000000000000000, -0.000000000000000000, -0.000000000000000000 ) ) ;
#255 = CONICAL_SURFACE ( 'NONE', #192, 7.149999999999996803, 1.029744258676653867 ) ;
#256 = CC_DESIGN_PERSON_AND_ORGANIZATION_ASSIGNMENT ( #125, #227, ( #221 ) ) ;
#257 = PERSON_AND_ORGANIZATION_ROLE ( 'creator' ) ;
#258 = DIRECTION ( 'NONE',  ( 0.000000000000000000, -1.000000000000000000, 1.224646799147353207E-16 ) ) ;
#259 = CC_DESIGN_APPROVAL ( #200, ( #240 ) ) ;
#260 = CARTESIAN_POINT ( 'NONE',  ( -0.7268297585575952402, 0.000000000000000000, -7.449999999999998401 ) ) ;
#261 = DIRECTION ( 'NONE',  ( 1.000000000000000000, -0.000000000000000000, -0.000000000000000000 ) ) ;
#262 = CARTESIAN_POINT ( 'NONE',  ( -14.69999999999999929, 0.000000000000000000, -7.149999999999996803 ) ) ;
#263 = ORIENTED_EDGE ( 'NONE', *, *, #301, .T. ) ;
#264 = CARTESIAN_POINT ( 'NONE',  ( -1.026829758557596062, 8.756224613903571573E-16, 7.149999999999997691 ) ) ;
#265 = EDGE_CURVE ( 'NONE', #119, #100, #231, .T. ) ;
#266 = DIRECTION ( 'NONE',  ( 1.000000000000000000, -0.000000000000000000, -0.000000000000000000 ) ) ;
#267 = ORIENTED_EDGE ( 'NONE', *, *, #152, .F. ) ;
#268 = DIRECTION ( 'NONE',  ( 0.000000000000000000, 1.000000000000000000, 0.000000000000000000 ) ) ;
#269 = ORIENTED_EDGE ( 'NONE', *, *, #91, .F. ) ;
#270 = MECHANICAL_CONTEXT ( 'NONE', #283, 'mechanical' ) ;
#271 = CARTESIAN_POINT ( 'NONE',  ( -0.7268297585575952402, -4.420309309537424943E-15, 0.000000000000000000 ) ) ;
#272 = ORIENTED_EDGE ( 'NONE', *, *, #85, .T. ) ;
#273 = VECTOR ( 'NONE', #282, 1000.000000000000000 ) ;
#274 = APPROVAL_PERSON_ORGANIZATION ( #199, #158, #76 ) ;
#275 = SPHERICAL_SURFACE ( 'NONE', #178, 12.50000000000000000 ) ;
#276 = VERTEX_POINT ( 'NONE', #150 ) ;
#277 = EDGE_CURVE ( 'NONE', #58, #13, #30, .T. ) ;
#278 = VECTOR ( 'NONE', #88, 1000.000000000000000 ) ;
#279 = LOCAL_TIME ( 10, 17, 57.00000000000000000, #233 ) ;
#280 = CIRCLE ( 'NONE', #52, 7.562036904489780831 ) ;
#281 = APPROVAL_DATE_TIME ( #21, #177 ) ;
#282 = DIRECTION ( 'NONE',  ( 0.7071067811865474617, 0.000000000000000000, -0.7071067811865475727 ) ) ;
#283 = APPLICATION_CONTEXT ( 'configuration controlled 3d designs of mechanical parts and assemblies' ) ;
#284 = LINE ( 'NONE', #187, #149 ) ;
#285 = DIRECTION ( 'NONE',  ( 0.000000000000000000, 0.000000000000000000, -1.000000000000000000 ) ) ;
#286 = DIRECTION ( 'NONE',  ( 1.000000000000000000, -0.000000000000000000, -0.000000000000000000 ) ) ;
#287 = CARTESIAN_POINT ( 'NONE',  ( -0.7268297585575952402, 0.000000000000000000, -7.449999999999998401 ) ) ;
#288 = FACE_OUTER_BOUND ( 'NONE', #163, .T. ) ;
#289 = EDGE_LOOP ( 'NONE', ( #104, #201 ) ) ;
#290 = VECTOR ( 'NONE', #73, 1000.000000000000000 ) ;
#291 = SHAPE_DEFINITION_REPRESENTATION ( #237, #305 ) ;
#292 = EDGE_LOOP ( 'NONE', ( #170, #115, #93, #31 ) ) ;
#293 = APPROVAL_STATUS ( 'not_yet_approved' ) ;
#294 = EDGE_LOOP ( 'NONE', ( #95, #123, #195, #272 ) ) ;
#295 = DIRECTION ( 'NONE',  ( -1.000000000000000000, -3.469446951953614189E-18, -0.000000000000000000 ) ) ;
#296 = AXIS2_PLACEMENT_3D ( 'NONE', #75, #295, #268 ) ;
#297 = CARTESIAN_POINT ( 'NONE',  ( -1.026829758557596062, 0.000000000000000000, -7.149999999999997691 ) ) ;
#298 = EDGE_CURVE ( 'NONE', #276, #100, #92, .T. ) ;
#299 = CARTESIAN_POINT ( 'NONE',  ( -10.67999999999999794, -1.307922781489373189E-15, 0.000000000000000000 ) ) ;
#300 = APPROVAL_STATUS ( 'not_yet_approved' ) ;
#301 = EDGE_CURVE ( 'NONE', #33, #56, #166, .T. ) ;
#302 = PERSON_AND_ORGANIZATION ( #5, #106 ) ;
#303 = PERSON_AND_ORGANIZATION ( #5, #106 ) ;
#304 = CALENDAR_DATE ( 2021, 18, 5 ) ;
#305 = ADVANCED_BREP_SHAPE_REPRESENTATION ( 'A_0221-2514', ( #223, #138 ), #155 ) ;
ENDSEC;
END-ISO-10303-21;
