ISO-10303-21;
HEADER;
FILE_DESCRIPTION (( 'STEP AP203' ),
    '1' );
FILE_NAME ('A_0221-3012.STEP',
    '2023-03-16T08:26:59',
    ( '' ),
    ( '' ),
    'SwSTEP 2.0',
    'SolidWorks 2019',
    '' );
FILE_SCHEMA (( 'CONFIG_CONTROL_DESIGN' ));
ENDSEC;

DATA;
#1 = CARTESIAN_POINT ( 'NONE',  ( 1.500000000000000000, 15.00000000000000000, -6.249999999999998224 ) ) ;
#2 = DIRECTION ( 'NONE',  ( 1.000000000000000000, 0.000000000000000000, 0.000000000000000000 ) ) ;
#3 = ADVANCED_FACE ( 'NONE', ( #253 ), #300, .T. ) ;
#4 = DIRECTION ( 'NONE',  ( 1.000000000000000000, 0.000000000000000000, 0.000000000000000000 ) ) ;
#5 = DIRECTION ( 'NONE',  ( 0.000000000000000000, 0.000000000000000000, 1.000000000000000000 ) ) ;
#6 = CC_DESIGN_SECURITY_CLASSIFICATION ( #93, ( #143 ) ) ;
#7 = CYLINDRICAL_SURFACE ( 'NONE', #220, 6.250000000000000000 ) ;
#8 = ORIENTED_EDGE ( 'NONE', *, *, #243, .F. ) ;
#9 = CALENDAR_DATE ( 2023, 16, 3 ) ;
#10 = COORDINATED_UNIVERSAL_TIME_OFFSET ( 1, 0, .AHEAD. ) ;
#11 = VECTOR ( 'NONE', #290, 1000.000000000000000 ) ;
#12 =( GEOMETRIC_REPRESENTATION_CONTEXT ( 3 ) GLOBAL_UNCERTAINTY_ASSIGNED_CONTEXT ( ( #149 ) ) GLOBAL_UNIT_ASSIGNED_CONTEXT ( ( #89, #34, #91 ) ) REPRESENTATION_CONTEXT ( 'NONE', 'WORKASPACE' ) );
#13 = ORIENTED_EDGE ( 'NONE', *, *, #272, .T. ) ;
#14 = APPROVAL_STATUS ( 'not_yet_approved' ) ;
#15 = ORIENTED_EDGE ( 'NONE', *, *, #22, .F. ) ;
#16 = SPHERICAL_SURFACE ( 'NONE', #289, 15.00000000000000000 ) ;
#17 = CALENDAR_DATE ( 2023, 16, 3 ) ;
#18 = LOCAL_TIME ( 9, 26, 59.00000000000000000, #213 ) ;
#19 = ORIENTED_EDGE ( 'NONE', *, *, #187, .F. ) ;
#20 = CONICAL_SURFACE ( 'NONE', #113, 6.249999999999998224, 1.029744258676654090 ) ;
#21 = EDGE_CURVE ( 'NONE', #39, #105, #288, .T. ) ;
#22 = EDGE_CURVE ( 'NONE', #64, #138, #53, .T. ) ;
#23 = CIRCLE ( 'NONE', #171, 6.524758785888382207 ) ;
#24 = FACE_OUTER_BOUND ( 'NONE', #123, .T. ) ;
#25 = ORIENTED_EDGE ( 'NONE', *, *, #258, .F. ) ;
#26 = AXIS2_PLACEMENT_3D ( 'NONE', #137, #54, #133 ) ;
#27 = CARTESIAN_POINT ( 'NONE',  ( -13.50657331768396219, 15.00000000000000000, 0.000000000000000000 ) ) ;
#28 = LOCAL_TIME ( 9, 26, 59.00000000000000000, #120 ) ;
#29 = DIRECTION ( 'NONE',  ( 0.000000000000000000, 0.000000000000000000, -1.000000000000000000 ) ) ;
#30 = CARTESIAN_POINT ( 'NONE',  ( -13.50657331768396219, 15.00000000000000000, 0.000000000000000000 ) ) ;
#31 = ORIENTED_EDGE ( 'NONE', *, *, #140, .T. ) ;
#32 = CARTESIAN_POINT ( 'NONE',  ( -13.50657331768396219, 15.00000000000000000, 6.524758785888383095 ) ) ;
#33 = VECTOR ( 'NONE', #84, 1000.000000000000000 ) ;
#34 =( NAMED_UNIT ( * ) PLANE_ANGLE_UNIT ( ) SI_UNIT ( $, .RADIAN. ) );
#35 = DIRECTION ( 'NONE',  ( 1.000000000000000000, -0.000000000000000000, -0.000000000000000000 ) ) ;
#36 = CARTESIAN_POINT ( 'NONE',  ( -13.50657331768396219, 15.00000000000000000, -6.524758785888383095 ) ) ;
#37 = LOCAL_TIME ( 9, 26, 59.00000000000000000, #10 ) ;
#38 = DIRECTION ( 'NONE',  ( -0.3430055515322826820, 1.150351612479143013E-16, -0.9393333761865564346 ) ) ;
#39 = VERTEX_POINT ( 'NONE', #136 ) ;
#40 = DATE_TIME_ROLE ( 'creation_date' ) ;
#41 = DIRECTION ( 'NONE',  ( -0.000000000000000000, -0.000000000000000000, -1.000000000000000000 ) ) ;
#42 = EDGE_CURVE ( 'NONE', #159, #173, #131, .T. ) ;
#43 = AXIS2_PLACEMENT_3D ( 'NONE', #271, #232, #116 ) ;
#44 = CALENDAR_DATE ( 2023, 16, 3 ) ;
#45 = ORIENTED_EDGE ( 'NONE', *, *, #278, .F. ) ;
#46 = CC_DESIGN_PERSON_AND_ORGANIZATION_ASSIGNMENT ( #141, #276, ( #69 ) ) ;
#47 = DATE_AND_TIME ( #17, #18 ) ;
#48 = DIRECTION ( 'NONE',  ( 1.000000000000000000, -0.000000000000000000, -0.000000000000000000 ) ) ;
#49 = DIRECTION ( 'NONE',  ( 1.000000000000000000, 0.000000000000000000, 0.000000000000000000 ) ) ;
#50 = CIRCLE ( 'NONE', #225, 6.249999999999998224 ) ;
#51 = DIRECTION ( 'NONE',  ( 0.000000000000000000, 0.000000000000000000, 1.000000000000000000 ) ) ;
#52 = AXIS2_PLACEMENT_3D ( 'NONE', #264, #49, #29 ) ;
#53 = LINE ( 'NONE', #160, #194 ) ;
#54 = DIRECTION ( 'NONE',  ( -1.000000000000000000, -0.000000000000000000, -0.000000000000000000 ) ) ;
#55 = DIRECTION ( 'NONE',  ( -0.5150380749100544886, 1.049727191138618449E-16, -0.8571673007021121116 ) ) ;
#56 = CC_DESIGN_PERSON_AND_ORGANIZATION_ASSIGNMENT ( #254, #124, ( #143 ) ) ;
#57 = CARTESIAN_POINT ( 'NONE',  ( -13.40624281598861067, 15.00000000000000000, -6.250000000000000000 ) ) ;
#58 = PERSON_AND_ORGANIZATION ( #134, #230 ) ;
#59 = ORIENTED_EDGE ( 'NONE', *, *, #109, .F. ) ;
#60 = APPLICATION_PROTOCOL_DEFINITION ( 'international standard', 'config_control_design', 1994, #126 ) ;
#61 = ADVANCED_FACE ( 'NONE', ( #183 ), #104, .F. ) ;
#62 = CARTESIAN_POINT ( 'NONE',  ( -13.40624281598861067, 15.00000000000000000, 0.000000000000000000 ) ) ;
#63 = LOCAL_TIME ( 9, 26, 59.00000000000000000, #236 ) ;
#64 = VERTEX_POINT ( 'NONE', #79 ) ;
#65 = DATE_AND_TIME ( #207, #28 ) ;
#66 = EDGE_CURVE ( 'NONE', #90, #173, #239, .T. ) ;
#67 = ORIENTED_EDGE ( 'NONE', *, *, #42, .T. ) ;
#68 = SHAPE_DEFINITION_REPRESENTATION ( #95, #73 ) ;
#69 = PRODUCT ( 'A_0221-3012', 'A_0221-3012', '', ( #145 ) ) ;
#70 = CIRCLE ( 'NONE', #241, 6.524758785888382207 ) ;
#71 = CC_DESIGN_APPROVAL ( #82, ( #161 ) ) ;
#72 = DATE_AND_TIME ( #44, #63 ) ;
#73 = ADVANCED_BREP_SHAPE_REPRESENTATION ( 'A_0221-3012', ( #118, #293 ), #12 ) ;
#74 = ORIENTED_EDGE ( 'NONE', *, *, #140, .F. ) ;
#75 = ORIENTED_EDGE ( 'NONE', *, *, #144, .T. ) ;
#76 = VECTOR ( 'NONE', #38, 1000.000000000000000 ) ;
#77 = CYLINDRICAL_SURFACE ( 'NONE', #228, 6.250000000000000000 ) ;
#78 = CARTESIAN_POINT ( 'NONE',  ( 1.500000000000000000, 15.00000000000000000, 0.000000000000000000 ) ) ;
#79 = CARTESIAN_POINT ( 'NONE',  ( 5.255378868922253588, 14.99999999999999822, 0.000000000000000000 ) ) ;
#80 = DIRECTION ( 'NONE',  ( 1.000000000000000000, 0.000000000000000000, 0.000000000000000000 ) ) ;
#81 = DIRECTION ( 'NONE',  ( 0.000000000000000000, 0.000000000000000000, 1.000000000000000000 ) ) ;
#82 = APPROVAL ( #14, 'NEURÈENÝ' ) ;
#83 = APPROVAL_PERSON_ORGANIZATION ( #101, #170, #298 ) ;
#84 = DIRECTION ( 'NONE',  ( -0.3430055515322826820, 0.000000000000000000, 0.9393333761865564346 ) ) ;
#85 = ORIENTED_EDGE ( 'NONE', *, *, #151, .T. ) ;
#86 = DIRECTION ( 'NONE',  ( -1.000000000000000000, -0.000000000000000000, -0.000000000000000000 ) ) ;
#87 = VERTEX_POINT ( 'NONE', #57 ) ;
#88 = CONICAL_SURFACE ( 'NONE', #26, 6.524758785888383095, 1.220681626494150240 ) ;
#89 =( LENGTH_UNIT ( ) NAMED_UNIT ( * ) SI_UNIT ( .MILLI., .METRE. ) );
#90 = VERTEX_POINT ( 'NONE', #224 ) ;
#91 =( NAMED_UNIT ( * ) SI_UNIT ( $, .STERADIAN. ) SOLID_ANGLE_UNIT ( ) );
#92 = EDGE_CURVE ( 'NONE', #215, #159, #23, .T. ) ;
#93 = SECURITY_CLASSIFICATION ( '', '', #303 ) ;
#94 = APPROVAL_STATUS ( 'not_yet_approved' ) ;
#95 = PRODUCT_DEFINITION_SHAPE ( 'NONE', 'NONE',  #161 ) ;
#96 = ORIENTED_EDGE ( 'NONE', *, *, #128, .T. ) ;
#97 = LOCAL_TIME ( 9, 26, 59.00000000000000000, #169 ) ;
#98 = ADVANCED_FACE ( 'NONE', ( #197 ), #88, .F. ) ;
#99 = DATE_TIME_ROLE ( 'classification_date' ) ;
#100 = EDGE_LOOP ( 'NONE', ( #8, #214, #67, #31, #172 ) ) ;
#101 = PERSON_AND_ORGANIZATION ( #134, #230 ) ;
#102 = EDGE_LOOP ( 'NONE', ( #217, #203, #229, #211, #231 ) ) ;
#103 = LINE ( 'NONE', #180, #283 ) ;
#104 = CONICAL_SURFACE ( 'NONE', #255, 6.249999999999998224, 1.029744258676654090 ) ;
#105 = VERTEX_POINT ( 'NONE', #245 ) ;
#106 = AXIS2_PLACEMENT_3D ( 'NONE', #110, #198, #287 ) ;
#107 = DIRECTION ( 'NONE',  ( -1.000000000000000000, -0.000000000000000000, -0.000000000000000000 ) ) ;
#108 = DIRECTION ( 'NONE',  ( 1.000000000000000000, 0.000000000000000000, 0.000000000000000000 ) ) ;
#109 = EDGE_CURVE ( 'NONE', #87, #90, #205, .T. ) ;
#110 = CARTESIAN_POINT ( 'NONE',  ( 0.000000000000000000, 15.00000000000000000, 0.000000000000000000 ) ) ;
#111 = APPLICATION_CONTEXT ( 'configuration controlled 3d designs of mechanical parts and assemblies' ) ;
#112 = DIRECTION ( 'NONE',  ( 0.000000000000000000, 0.000000000000000000, -1.000000000000000000 ) ) ;
#113 = AXIS2_PLACEMENT_3D ( 'NONE', #78, #130, #268 ) ;
#114 = APPROVAL_STATUS ( 'not_yet_approved' ) ;
#115 = CALENDAR_DATE ( 2023, 16, 3 ) ;
#116 = DIRECTION ( 'NONE',  ( 0.000000000000000000, 0.000000000000000000, -1.000000000000000000 ) ) ;
#117 = DIRECTION ( 'NONE',  ( 0.000000000000000000, 0.000000000000000000, -1.000000000000000000 ) ) ;
#118 = MANIFOLD_SOLID_BREP ( 'Díry pro kolík, velikost mm1', #147 ) ;
#119 = APPROVAL ( #114, 'NEURÈENÝ' ) ;
#120 = COORDINATED_UNIVERSAL_TIME_OFFSET ( 1, 0, .AHEAD. ) ;
#121 = EDGE_LOOP ( 'NONE', ( #153, #85, #19, #25 ) ) ;
#122 = CIRCLE ( 'NONE', #157, 6.249999999999998224 ) ;
#123 = EDGE_LOOP ( 'NONE', ( #257, #274, #304 ) ) ;
#124 = PERSON_AND_ORGANIZATION_ROLE ( 'creator' ) ;
#125 = CIRCLE ( 'NONE', #106, 15.00000000000000000 ) ;
#126 = APPLICATION_CONTEXT ( 'configuration controlled 3d designs of mechanical parts and assemblies' ) ;
#127 = PERSON_AND_ORGANIZATION ( #134, #230 ) ;
#128 = EDGE_CURVE ( 'NONE', #64, #192, #103, .T. ) ;
#129 = EDGE_LOOP ( 'NONE', ( #15, #96, #75 ) ) ;
#130 = DIRECTION ( 'NONE',  ( -1.000000000000000000, -0.000000000000000000, -0.000000000000000000 ) ) ;
#131 = CIRCLE ( 'NONE', #43, 6.524758785888382207 ) ;
#132 = CARTESIAN_POINT ( 'NONE',  ( -13.50657331768396219, 15.00000000000000000, 6.524758785888383095 ) ) ;
#133 = DIRECTION ( 'NONE',  ( 0.000000000000000000, 0.000000000000000000, 1.000000000000000000 ) ) ;
#134 = PERSON ( 'NEURÈENÝ', 'NEURÈENÝ', 'NEURÈENÝ', ('NEURÈENÝ'), ('NEURÈENÝ'), ('NEURÈENÝ') ) ;
#135 = CARTESIAN_POINT ( 'NONE',  ( -15.00000000000000000, 15.00000000000000000, -6.250000000000000000 ) ) ;
#136 = CARTESIAN_POINT ( 'NONE',  ( -13.50657331768396219, 8.475241214111616017, 0.000000000000000000 ) ) ;
#137 = CARTESIAN_POINT ( 'NONE',  ( -13.50657331768396219, 15.00000000000000000, 0.000000000000000000 ) ) ;
#138 = VERTEX_POINT ( 'NONE', #1 ) ;
#139 = PERSON_AND_ORGANIZATION ( #134, #230 ) ;
#140 = EDGE_CURVE ( 'NONE', #173, #39, #70, .T. ) ;
#141 = PERSON_AND_ORGANIZATION ( #134, #230 ) ;
#142 = ORIENTED_EDGE ( 'NONE', *, *, #151, .F. ) ;
#143 = PRODUCT_DEFINITION_FORMATION_WITH_SPECIFIED_SOURCE ( 'LIBOVOLNÝ', '', #69, .NOT_KNOWN. ) ;
#144 = EDGE_CURVE ( 'NONE', #192, #138, #122, .T. ) ;
#145 = MECHANICAL_CONTEXT ( 'NONE', #111, 'mechanical' ) ;
#146 = DIRECTION ( 'NONE',  ( -1.000000000000000000, 0.000000000000000000, 0.000000000000000000 ) ) ;
#147 = CLOSED_SHELL ( 'NONE', ( #190, #196, #166, #3, #302, #266, #98, #61 ) ) ;
#148 = CIRCLE ( 'NONE', #52, 6.524758785888382207 ) ;
#149 = UNCERTAINTY_MEASURE_WITH_UNIT (LENGTH_MEASURE( 1.000000000000000082E-05 ), #89, 'distance_accuracy_value', 'NONE');
#150 = PERSON_AND_ORGANIZATION_ROLE ( 'design_supplier' ) ;
#151 = EDGE_CURVE ( 'NONE', #90, #192, #200, .T. ) ;
#152 = ORIENTED_EDGE ( 'NONE', *, *, #42, .F. ) ;
#153 = ORIENTED_EDGE ( 'NONE', *, *, #109, .T. ) ;
#154 = CC_DESIGN_APPROVAL ( #170, ( #93 ) ) ;
#155 = DIRECTION ( 'NONE',  ( 0.000000000000000000, 0.000000000000000000, -1.000000000000000000 ) ) ;
#156 = CARTESIAN_POINT ( 'NONE',  ( 0.000000000000000000, 15.00000000000000000, 0.000000000000000000 ) ) ;
#157 = AXIS2_PLACEMENT_3D ( 'NONE', #195, #184, #282 ) ;
#158 = DIRECTION ( 'NONE',  ( 0.000000000000000000, 0.000000000000000000, -1.000000000000000000 ) ) ;
#159 = VERTEX_POINT ( 'NONE', #285 ) ;
#160 = CARTESIAN_POINT ( 'NONE',  ( 1.500000000000000000, 15.00000000000000000, -6.249999999999998224 ) ) ;
#161 = PRODUCT_DEFINITION ( 'NEZNÁMÝ', '', #143, #235 ) ;
#162 = CARTESIAN_POINT ( 'NONE',  ( -15.00000000000000000, 15.00000000000000000, 6.250000000000000000 ) ) ;
#163 = DIRECTION ( 'NONE',  ( -1.000000000000000000, -0.000000000000000000, -0.000000000000000000 ) ) ;
#164 = LINE ( 'NONE', #36, #76 ) ;
#165 = PERSON_AND_ORGANIZATION ( #134, #230 ) ;
#166 = ADVANCED_FACE ( 'NONE', ( #226 ), #77, .F. ) ;
#167 = FACE_OUTER_BOUND ( 'NONE', #100, .T. ) ;
#168 = APPROVAL_PERSON_ORGANIZATION ( #139, #119, #204 ) ;
#169 = COORDINATED_UNIVERSAL_TIME_OFFSET ( 1, 0, .AHEAD. ) ;
#170 = APPROVAL ( #94, 'NEURÈENÝ' ) ;
#171 = AXIS2_PLACEMENT_3D ( 'NONE', #30, #108, #221 ) ;
#172 = ORIENTED_EDGE ( 'NONE', *, *, #21, .T. ) ;
#173 = VERTEX_POINT ( 'NONE', #132 ) ;
#174 = CC_DESIGN_DATE_AND_TIME_ASSIGNMENT ( #275, #40, ( #161 ) ) ;
#175 = AXIS2_PLACEMENT_3D ( 'NONE', #210, #299, #80 ) ;
#176 = ORIENTED_EDGE ( 'NONE', *, *, #92, .F. ) ;
#177 = CARTESIAN_POINT ( 'NONE',  ( -13.40624281598861067, 15.00000000000000000, 0.000000000000000000 ) ) ;
#178 = ORIENTED_EDGE ( 'NONE', *, *, #66, .T. ) ;
#179 = CARTESIAN_POINT ( 'NONE',  ( 1.500000000000000000, 15.00000000000000000, 6.249999999999998224 ) ) ;
#180 = CARTESIAN_POINT ( 'NONE',  ( 1.500000000000000000, 15.00000000000000000, 6.249999999999998224 ) ) ;
#181 = AXIS2_PLACEMENT_3D ( 'NONE', #62, #86, #117 ) ;
#182 = CARTESIAN_POINT ( 'NONE',  ( 1.500000000000000000, 15.00000000000000000, 0.000000000000000000 ) ) ;
#183 = FACE_OUTER_BOUND ( 'NONE', #129, .T. ) ;
#184 = DIRECTION ( 'NONE',  ( -1.000000000000000000, -0.000000000000000000, -0.000000000000000000 ) ) ;
#185 = ORIENTED_EDGE ( 'NONE', *, *, #258, .T. ) ;
#186 = CIRCLE ( 'NONE', #181, 6.250000000000000000 ) ;
#187 = EDGE_CURVE ( 'NONE', #138, #192, #50, .T. ) ;
#188 = EDGE_LOOP ( 'NONE', ( #45, #295, #178, #152, #176 ) ) ;
#189 = FACE_OUTER_BOUND ( 'NONE', #237, .T. ) ;
#190 = ADVANCED_FACE ( 'NONE', ( #24 ), #20, .F. ) ;
#191 = APPROVAL_DATE_TIME ( #72, #170 ) ;
#192 = VERTEX_POINT ( 'NONE', #179 ) ;
#193 = CARTESIAN_POINT ( 'NONE',  ( 1.500000000000000000, 15.00000000000000000, 0.000000000000000000 ) ) ;
#194 = VECTOR ( 'NONE', #55, 1000.000000000000000 ) ;
#195 = CARTESIAN_POINT ( 'NONE',  ( 1.500000000000000000, 15.00000000000000000, 0.000000000000000000 ) ) ;
#196 = ADVANCED_FACE ( 'NONE', ( #286 ), #270, .F. ) ;
#197 = FACE_OUTER_BOUND ( 'NONE', #188, .T. ) ;
#198 = DIRECTION ( 'NONE',  ( -1.224646799147353207E-16, 0.000000000000000000, -1.000000000000000000 ) ) ;
#199 = CC_DESIGN_APPROVAL ( #119, ( #143 ) ) ;
#200 = LINE ( 'NONE', #162, #11 ) ;
#201 = CC_DESIGN_DATE_AND_TIME_ASSIGNMENT ( #47, #99, ( #93 ) ) ;
#202 = DIRECTION ( 'NONE',  ( 1.000000000000000000, -0.000000000000000000, -0.000000000000000000 ) ) ;
#203 = ORIENTED_EDGE ( 'NONE', *, *, #243, .T. ) ;
#204 = APPROVAL_ROLE ( '' ) ;
#205 = CIRCLE ( 'NONE', #209, 6.250000000000000000 ) ;
#206 = CARTESIAN_POINT ( 'NONE',  ( -15.00000000000000000, 15.00000000000000000, 0.000000000000000000 ) ) ;
#207 = CALENDAR_DATE ( 2023, 16, 3 ) ;
#208 = DIRECTION ( 'NONE',  ( 0.000000000000000000, 0.000000000000000000, 1.000000000000000000 ) ) ;
#209 = AXIS2_PLACEMENT_3D ( 'NONE', #177, #107, #112 ) ;
#210 = CARTESIAN_POINT ( 'NONE',  ( 0.000000000000000000, 15.00000000000000000, 0.000000000000000000 ) ) ;
#211 = ORIENTED_EDGE ( 'NONE', *, *, #212, .T. ) ;
#212 = EDGE_CURVE ( 'NONE', #39, #215, #148, .T. ) ;
#213 = COORDINATED_UNIVERSAL_TIME_OFFSET ( 1, 0, .AHEAD. ) ;
#214 = ORIENTED_EDGE ( 'NONE', *, *, #238, .T. ) ;
#215 = VERTEX_POINT ( 'NONE', #222 ) ;
#216 = ORIENTED_EDGE ( 'NONE', *, *, #66, .F. ) ;
#217 = ORIENTED_EDGE ( 'NONE', *, *, #238, .F. ) ;
#218 = CARTESIAN_POINT ( 'NONE',  ( -13.50657331768396219, 15.00000000000000000, 0.000000000000000000 ) ) ;
#219 = CC_DESIGN_PERSON_AND_ORGANIZATION_ASSIGNMENT ( #127, #301, ( #93 ) ) ;
#220 = AXIS2_PLACEMENT_3D ( 'NONE', #206, #202, #247 ) ;
#221 = DIRECTION ( 'NONE',  ( 0.000000000000000000, 0.000000000000000000, -1.000000000000000000 ) ) ;
#222 = CARTESIAN_POINT ( 'NONE',  ( -13.50657331768396219, 15.00000000000000000, -6.524758785888383095 ) ) ;
#223 = CC_DESIGN_PERSON_AND_ORGANIZATION_ASSIGNMENT ( #58, #227, ( #161 ) ) ;
#224 = CARTESIAN_POINT ( 'NONE',  ( -13.40624281598861067, 15.00000000000000000, 6.250000000000000000 ) ) ;
#225 = AXIS2_PLACEMENT_3D ( 'NONE', #182, #163, #81 ) ;
#226 = FACE_OUTER_BOUND ( 'NONE', #121, .T. ) ;
#227 = PERSON_AND_ORGANIZATION_ROLE ( 'creator' ) ;
#228 = AXIS2_PLACEMENT_3D ( 'NONE', #242, #48, #155 ) ;
#229 = ORIENTED_EDGE ( 'NONE', *, *, #21, .F. ) ;
#230 = ORGANIZATION ( 'NEURÈENÝ', 'NEURÈENÝ', '' ) ;
#231 = ORIENTED_EDGE ( 'NONE', *, *, #92, .T. ) ;
#232 = DIRECTION ( 'NONE',  ( 1.000000000000000000, 0.000000000000000000, 0.000000000000000000 ) ) ;
#233 = AXIS2_PLACEMENT_3D ( 'NONE', #218, #265, #51 ) ;
#234 = DATE_AND_TIME ( #115, #37 ) ;
#235 = DESIGN_CONTEXT ( 'detailed design', #126, 'design' ) ;
#236 = COORDINATED_UNIVERSAL_TIME_OFFSET ( 1, 0, .AHEAD. ) ;
#237 = EDGE_LOOP ( 'NONE', ( #142, #13, #185, #246 ) ) ;
#238 = EDGE_CURVE ( 'NONE', #279, #159, #256, .T. ) ;
#239 = LINE ( 'NONE', #32, #33 ) ;
#240 = DIRECTION ( 'NONE',  ( -0.000000000000000000, 0.000000000000000000, 1.000000000000000000 ) ) ;
#241 = AXIS2_PLACEMENT_3D ( 'NONE', #27, #2, #158 ) ;
#242 = CARTESIAN_POINT ( 'NONE',  ( -15.00000000000000000, 15.00000000000000000, 0.000000000000000000 ) ) ;
#243 = EDGE_CURVE ( 'NONE', #279, #105, #125, .T. ) ;
#244 = LINE ( 'NONE', #135, #261 ) ;
#245 = CARTESIAN_POINT ( 'NONE',  ( -9.184850993605147944E-16, 0.000000000000000000, 0.000000000000000000 ) ) ;
#246 = ORIENTED_EDGE ( 'NONE', *, *, #144, .F. ) ;
#247 = DIRECTION ( 'NONE',  ( 0.000000000000000000, 0.000000000000000000, -1.000000000000000000 ) ) ;
#248 = APPROVAL_ROLE ( '' ) ;
#249 = CARTESIAN_POINT ( 'NONE',  ( -9.184850993605147944E-16, 30.00000000000000000, 0.000000000000000000 ) ) ;
#250 = CC_DESIGN_PERSON_AND_ORGANIZATION_ASSIGNMENT ( #280, #150, ( #143 ) ) ;
#251 = CARTESIAN_POINT ( 'NONE',  ( 0.000000000000000000, 0.000000000000000000, 0.000000000000000000 ) ) ;
#252 = CARTESIAN_POINT ( 'NONE',  ( 0.000000000000000000, 15.00000000000000000, 0.000000000000000000 ) ) ;
#253 = FACE_OUTER_BOUND ( 'NONE', #102, .T. ) ;
#254 = PERSON_AND_ORGANIZATION ( #134, #230 ) ;
#255 = AXIS2_PLACEMENT_3D ( 'NONE', #193, #267, #5 ) ;
#256 = CIRCLE ( 'NONE', #284, 15.00000000000000000 ) ;
#257 = ORIENTED_EDGE ( 'NONE', *, *, #128, .F. ) ;
#258 = EDGE_CURVE ( 'NONE', #87, #138, #244, .T. ) ;
#259 = ORIENTED_EDGE ( 'NONE', *, *, #278, .T. ) ;
#260 = AXIS2_PLACEMENT_3D ( 'NONE', #252, #41, #146 ) ;
#261 = VECTOR ( 'NONE', #35, 1000.000000000000000 ) ;
#262 = DIRECTION ( 'NONE',  ( -0.5150380749100544886, 0.000000000000000000, 0.8571673007021121116 ) ) ;
#263 = EDGE_LOOP ( 'NONE', ( #59, #259, #292, #74, #216 ) ) ;
#264 = CARTESIAN_POINT ( 'NONE',  ( -13.50657331768396219, 15.00000000000000000, 0.000000000000000000 ) ) ;
#265 = DIRECTION ( 'NONE',  ( -1.000000000000000000, -0.000000000000000000, -0.000000000000000000 ) ) ;
#266 = ADVANCED_FACE ( 'NONE', ( #189 ), #7, .F. ) ;
#267 = DIRECTION ( 'NONE',  ( -1.000000000000000000, -0.000000000000000000, -0.000000000000000000 ) ) ;
#268 = DIRECTION ( 'NONE',  ( 0.000000000000000000, 0.000000000000000000, 1.000000000000000000 ) ) ;
#269 = DIRECTION ( 'NONE',  ( -0.000000000000000000, -0.000000000000000000, -1.000000000000000000 ) ) ;
#270 = CONICAL_SURFACE ( 'NONE', #233, 6.524758785888383095, 1.220681626494150240 ) ;
#271 = CARTESIAN_POINT ( 'NONE',  ( -13.50657331768396219, 15.00000000000000000, 0.000000000000000000 ) ) ;
#272 = EDGE_CURVE ( 'NONE', #90, #87, #186, .T. ) ;
#273 = DIRECTION ( 'NONE',  ( 1.000000000000000000, 0.000000000000000000, 0.000000000000000000 ) ) ;
#274 = ORIENTED_EDGE ( 'NONE', *, *, #22, .T. ) ;
#275 = DATE_AND_TIME ( #9, #97 ) ;
#276 = PERSON_AND_ORGANIZATION_ROLE ( 'design_owner' ) ;
#277 = APPROVAL_DATE_TIME ( #234, #119 ) ;
#278 = EDGE_CURVE ( 'NONE', #87, #215, #164, .T. ) ;
#279 = VERTEX_POINT ( 'NONE', #249 ) ;
#280 = PERSON_AND_ORGANIZATION ( #134, #230 ) ;
#281 = PRODUCT_RELATED_PRODUCT_CATEGORY ( 'detail', '', ( #69 ) ) ;
#282 = DIRECTION ( 'NONE',  ( 0.000000000000000000, 0.000000000000000000, 1.000000000000000000 ) ) ;
#283 = VECTOR ( 'NONE', #262, 1000.000000000000000 ) ;
#284 = AXIS2_PLACEMENT_3D ( 'NONE', #156, #240, #4 ) ;
#285 = CARTESIAN_POINT ( 'NONE',  ( -13.50657331768396219, 21.52475878588838043, 0.000000000000000000 ) ) ;
#286 = FACE_OUTER_BOUND ( 'NONE', #263, .T. ) ;
#287 = DIRECTION ( 'NONE',  ( -1.000000000000000000, 0.000000000000000000, 1.224646799147352961E-16 ) ) ;
#288 = CIRCLE ( 'NONE', #175, 15.00000000000000000 ) ;
#289 = AXIS2_PLACEMENT_3D ( 'NONE', #297, #269, #294 ) ;
#290 = DIRECTION ( 'NONE',  ( 1.000000000000000000, -0.000000000000000000, -0.000000000000000000 ) ) ;
#291 = APPLICATION_PROTOCOL_DEFINITION ( 'international standard', 'config_control_design', 1994, #111 ) ;
#292 = ORIENTED_EDGE ( 'NONE', *, *, #212, .F. ) ;
#293 = AXIS2_PLACEMENT_3D ( 'NONE', #251, #208, #273 ) ;
#294 = DIRECTION ( 'NONE',  ( -1.000000000000000000, 0.000000000000000000, 0.000000000000000000 ) ) ;
#295 = ORIENTED_EDGE ( 'NONE', *, *, #272, .F. ) ;
#296 = APPROVAL_DATE_TIME ( #65, #82 ) ;
#297 = CARTESIAN_POINT ( 'NONE',  ( 0.000000000000000000, 15.00000000000000000, 0.000000000000000000 ) ) ;
#298 = APPROVAL_ROLE ( '' ) ;
#299 = DIRECTION ( 'NONE',  ( -0.000000000000000000, 0.000000000000000000, 1.000000000000000000 ) ) ;
#300 = SPHERICAL_SURFACE ( 'NONE', #260, 15.00000000000000000 ) ;
#301 = PERSON_AND_ORGANIZATION_ROLE ( 'classification_officer' ) ;
#302 = ADVANCED_FACE ( 'NONE', ( #167 ), #16, .T. ) ;
#303 = SECURITY_CLASSIFICATION_LEVEL ( 'unclassified' ) ;
#304 = ORIENTED_EDGE ( 'NONE', *, *, #187, .T. ) ;
#305 = APPROVAL_PERSON_ORGANIZATION ( #165, #82, #248 ) ;
ENDSEC;
END-ISO-10303-21;
