ISO-10303-21;
HEADER;
FILE_DESCRIPTION (( 'STEP AP203' ),
    '1' );
FILE_NAME ('A_0224-2012.STEP',
    '2023-01-10T09:54:16',
    ( '' ),
    ( '' ),
    'SwSTEP 2.0',
    'SolidWorks 2019',
    '' );
FILE_SCHEMA (( 'CONFIG_CONTROL_DESIGN' ));
ENDSEC;

DATA;
#1 = PERSON_AND_ORGANIZATION ( #27, #92 ) ;
#2 = DATE_AND_TIME ( #242, #319 ) ;
#3 = EDGE_CURVE ( 'NONE', #316, #293, #175, .T. ) ;
#4 = PERSON_AND_ORGANIZATION_ROLE ( 'design_supplier' ) ;
#5 = ORIENTED_EDGE ( 'NONE', *, *, #239, .T. ) ;
#6 = CIRCLE ( 'NONE', #122, 6.524699440442650378 ) ;
#7 = DIRECTION ( 'NONE',  ( 0.000000000000000000, 0.000000000000000000, -1.000000000000000000 ) ) ;
#8 = EDGE_CURVE ( 'NONE', #171, #111, #46, .T. ) ;
#9 = VERTEX_POINT ( 'NONE', #17 ) ;
#10 = CARTESIAN_POINT ( 'NONE',  ( -15.18159261426352558, 0.000000000000000000, 6.524699440442652154 ) ) ;
#11 = ORIENTED_EDGE ( 'NONE', *, *, #8, .T. ) ;
#12 = DIRECTION ( 'NONE',  ( 1.000000000000000000, 0.000000000000000000, 0.000000000000000000 ) ) ;
#13 = CARTESIAN_POINT ( 'NONE',  ( -0.02530055955734817480, 0.000000000000000000, 0.000000000000000000 ) ) ;
#14 = AXIS2_PLACEMENT_3D ( 'NONE', #247, #315, #89 ) ;
#15 = CARTESIAN_POINT ( 'NONE',  ( -0.3000000000000030420, 0.000000000000000000, 0.000000000000000000 ) ) ;
#16 = UNCERTAINTY_MEASURE_WITH_UNIT (LENGTH_MEASURE( 1.000000000000000082E-05 ), #79, 'distance_accuracy_value', 'NONE');
#17 = CARTESIAN_POINT ( 'NONE',  ( -0.3000000000000030420, 7.654042494670954648E-16, 6.249999999999997335 ) ) ;
#18 = DIRECTION ( 'NONE',  ( -1.000000000000000000, -0.000000000000000000, -0.000000000000000000 ) ) ;
#19 = CC_DESIGN_DATE_AND_TIME_ASSIGNMENT ( #308, #159, ( #283 ) ) ;
#20 = MECHANICAL_CONTEXT ( 'NONE', #84, 'mechanical' ) ;
#21 = AXIS2_PLACEMENT_3D ( 'NONE', #25, #51, #156 ) ;
#22 = CARTESIAN_POINT ( 'NONE',  ( -7.603446586910437510, -8.673617379884035472E-16, 0.000000000000000000 ) ) ;
#23 = AXIS2_PLACEMENT_3D ( 'NONE', #224, #141, #221 ) ;
#24 = ADVANCED_FACE ( 'NONE', ( #177 ), #174, .F. ) ;
#25 = CARTESIAN_POINT ( 'NONE',  ( -14.90689317382087609, 0.000000000000000000, 0.000000000000000000 ) ) ;
#26 = APPROVAL_PERSON_ORGANIZATION ( #185, #292, #183 ) ;
#27 = PERSON ( 'NEURÈENÝ', 'NEURÈENÝ', 'NEURÈENÝ', ('NEURÈENÝ'), ('NEURÈENÝ'), ('NEURÈENÝ') ) ;
#28 = VECTOR ( 'NONE', #252, 1000.000000000000000 ) ;
#29 = COORDINATED_UNIVERSAL_TIME_OFFSET ( 1, 0, .AHEAD. ) ;
#30 = EDGE_CURVE ( 'NONE', #63, #293, #105, .T. ) ;
#31 = CALENDAR_DATE ( 2023, 10, 1 ) ;
#32 = PERSON_AND_ORGANIZATION ( #27, #92 ) ;
#33 = PRODUCT_DEFINITION_FORMATION_WITH_SPECIFIED_SOURCE ( 'LIBOVOLNÝ', '', #121, .NOT_KNOWN. ) ;
#34 = AXIS2_PLACEMENT_3D ( 'NONE', #291, #139, #39 ) ;
#35 = EDGE_CURVE ( 'NONE', #285, #316, #85, .T. ) ;
#36 = PERSON_AND_ORGANIZATION_ROLE ( 'creator' ) ;
#37 = SECURITY_CLASSIFICATION_LEVEL ( 'unclassified' ) ;
#38 = EDGE_LOOP ( 'NONE', ( #289, #143, #140, #320, #265 ) ) ;
#39 = DIRECTION ( 'NONE',  ( -1.000000000000000000, 0.000000000000000000, 0.000000000000000000 ) ) ;
#40 = ORIENTED_EDGE ( 'NONE', *, *, #200, .F. ) ;
#41 = CYLINDRICAL_SURFACE ( 'NONE', #284, 6.249999999999997335 ) ;
#42 = ORIENTED_EDGE ( 'NONE', *, *, #30, .F. ) ;
#43 = CARTESIAN_POINT ( 'NONE',  ( -7.603446586910437510, -8.673617379884035472E-16, 0.000000000000000000 ) ) ;
#44 = ORIENTED_EDGE ( 'NONE', *, *, #119, .T. ) ;
#45 = CARTESIAN_POINT ( 'NONE',  ( -15.18159261426352558, 7.990452285136620144E-16, -6.524699440442652154 ) ) ;
#46 = LINE ( 'NONE', #148, #28 ) ;
#47 = VECTOR ( 'NONE', #178, 1000.000000000000000 ) ;
#48 = CC_DESIGN_PERSON_AND_ORGANIZATION_ASSIGNMENT ( #32, #4, ( #33 ) ) ;
#49 = LINE ( 'NONE', #52, #304 ) ;
#50 = CARTESIAN_POINT ( 'NONE',  ( 0.000000000000000000, 0.000000000000000000, 0.000000000000000000 ) ) ;
#51 = DIRECTION ( 'NONE',  ( -1.000000000000000000, -0.000000000000000000, -0.000000000000000000 ) ) ;
#52 = CARTESIAN_POINT ( 'NONE',  ( -15.20689317382087680, 8.021436534415167192E-16, -6.550000000000002487 ) ) ;
#53 = CONICAL_SURFACE ( 'NONE', #94, 6.550000000000002487, 0.7853981633974541632 ) ;
#54 = DIRECTION ( 'NONE',  ( 1.000000000000000000, 0.000000000000000000, 0.000000000000000000 ) ) ;
#55 = FACE_OUTER_BOUND ( 'NONE', #323, .T. ) ;
#56 = DATE_AND_TIME ( #215, #206 ) ;
#57 = ADVANCED_FACE ( 'NONE', ( #172 ), #41, .F. ) ;
#58 = CLOSED_SHELL ( 'NONE', ( #151, #245, #57, #204, #307, #24, #78, #164 ) ) ;
#59 = CC_DESIGN_APPROVAL ( #292, ( #283 ) ) ;
#60 = APPROVAL_DATE_TIME ( #210, #280 ) ;
#61 = CIRCLE ( 'NONE', #21, 6.249999999999997335 ) ;
#62 = AXIS2_PLACEMENT_3D ( 'NONE', #288, #117, #219 ) ;
#63 = VERTEX_POINT ( 'NONE', #270 ) ;
#64 = ORIENTED_EDGE ( 'NONE', *, *, #75, .T. ) ;
#65 = CARTESIAN_POINT ( 'NONE',  ( 0.000000000000000000, 0.000000000000000000, 0.000000000000000000 ) ) ;
#66 = ORIENTED_EDGE ( 'NONE', *, *, #217, .T. ) ;
#67 = VECTOR ( 'NONE', #197, 1000.000000000000000 ) ;
#68 = DIRECTION ( 'NONE',  ( 0.000000000000000000, 0.000000000000000000, 1.000000000000000000 ) ) ;
#69 = ORIENTED_EDGE ( 'NONE', *, *, #130, .F. ) ;
#70 = FACE_OUTER_BOUND ( 'NONE', #248, .T. ) ;
#71 = VERTEX_POINT ( 'NONE', #45 ) ;
#72 = DIRECTION ( 'NONE',  ( 0.000000000000000000, 0.000000000000000000, -1.000000000000000000 ) ) ;
#73 = PRODUCT_DEFINITION_SHAPE ( 'NONE', 'NONE',  #299 ) ;
#74 = FACE_OUTER_BOUND ( 'NONE', #38, .T. ) ;
#75 = EDGE_CURVE ( 'NONE', #171, #313, #188, .T. ) ;
#76 = DIRECTION ( 'NONE',  ( 0.000000000000000000, 0.000000000000000000, 1.000000000000000000 ) ) ;
#77 = DIRECTION ( 'NONE',  ( 0.000000000000000000, 0.000000000000000000, 1.000000000000000000 ) ) ;
#78 = ADVANCED_FACE ( 'NONE', ( #70 ), #216, .F. ) ;
#79 =( LENGTH_UNIT ( ) NAMED_UNIT ( * ) SI_UNIT ( .MILLI., .METRE. ) );
#80 = AXIS2_PLACEMENT_3D ( 'NONE', #13, #230, #124 ) ;
#81 = COORDINATED_UNIVERSAL_TIME_OFFSET ( 1, 0, .AHEAD. ) ;
#82 = DATE_TIME_ROLE ( 'creation_date' ) ;
#83 = PERSON_AND_ORGANIZATION ( #27, #92 ) ;
#84 = APPLICATION_CONTEXT ( 'configuration controlled 3d designs of mechanical parts and assemblies' ) ;
#85 = CIRCLE ( 'NONE', #108, 6.524699440442650378 ) ;
#86 = ORIENTED_EDGE ( 'NONE', *, *, #200, .T. ) ;
#87 = ORIENTED_EDGE ( 'NONE', *, *, #239, .F. ) ;
#88 = EDGE_CURVE ( 'NONE', #266, #285, #163, .T. ) ;
#89 = DIRECTION ( 'NONE',  ( 0.000000000000000000, 0.000000000000000000, 1.000000000000000000 ) ) ;
#90 = ORIENTED_EDGE ( 'NONE', *, *, #100, .F. ) ;
#91 = DIRECTION ( 'NONE',  ( 0.000000000000000000, 0.000000000000000000, -1.000000000000000000 ) ) ;
#92 = ORGANIZATION ( 'NEURÈENÝ', 'NEURÈENÝ', '' ) ;
#93 = ORIENTED_EDGE ( 'NONE', *, *, #3, .F. ) ;
#94 = AXIS2_PLACEMENT_3D ( 'NONE', #209, #106, #306 ) ;
#95 = DIRECTION ( 'NONE',  ( 1.000000000000000000, 0.000000000000000000, 0.000000000000000000 ) ) ;
#96 = APPROVAL ( #264, 'NEURÈENÝ' ) ;
#97 = ORIENTED_EDGE ( 'NONE', *, *, #325, .F. ) ;
#98 = LINE ( 'NONE', #244, #309 ) ;
#99 = DIRECTION ( 'NONE',  ( 0.000000000000000000, 0.000000000000000000, -1.000000000000000000 ) ) ;
#100 = EDGE_CURVE ( 'NONE', #266, #71, #162, .T. ) ;
#101 = DIRECTION ( 'NONE',  ( -0.7071067811865434649, 8.659560562354983395E-17, -0.7071067811865516806 ) ) ;
#102 = DIRECTION ( 'NONE',  ( 1.000000000000000000, 0.000000000000000000, 0.000000000000000000 ) ) ;
#103 = CARTESIAN_POINT ( 'NONE',  ( -15.18159261426352558, 0.000000000000000000, 0.000000000000000000 ) ) ;
#104 = CC_DESIGN_SECURITY_CLASSIFICATION ( #283, ( #33 ) ) ;
#105 = CIRCLE ( 'NONE', #34, 10.00000000000000178 ) ;
#106 = DIRECTION ( 'NONE',  ( -1.000000000000000000, -0.000000000000000000, -0.000000000000000000 ) ) ;
#107 = PERSON_AND_ORGANIZATION ( #27, #92 ) ;
#108 = AXIS2_PLACEMENT_3D ( 'NONE', #318, #18, #322 ) ;
#109 = PERSON_AND_ORGANIZATION_ROLE ( 'classification_officer' ) ;
#110 = COORDINATED_UNIVERSAL_TIME_OFFSET ( 1, 0, .AHEAD. ) ;
#111 = VERTEX_POINT ( 'NONE', #10 ) ;
#112 = CALENDAR_DATE ( 2023, 10, 1 ) ;
#113 = CONICAL_SURFACE ( 'NONE', #23, 6.249999999999997335, 0.7853981633974425058 ) ;
#114 = ORIENTED_EDGE ( 'NONE', *, *, #286, .T. ) ;
#115 = DIRECTION ( 'NONE',  ( -1.000000000000000000, -0.000000000000000000, -0.000000000000000000 ) ) ;
#116 = ORIENTED_EDGE ( 'NONE', *, *, #30, .T. ) ;
#117 = DIRECTION ( 'NONE',  ( -1.000000000000000000, -0.000000000000000000, -0.000000000000000000 ) ) ;
#118 = ORIENTED_EDGE ( 'NONE', *, *, #119, .F. ) ;
#119 = EDGE_CURVE ( 'NONE', #63, #111, #202, .T. ) ;
#120 = CARTESIAN_POINT ( 'NONE',  ( -0.3000000000000030420, 0.000000000000000000, 0.000000000000000000 ) ) ;
#121 = PRODUCT ( 'A_0224-2012', 'A_0224-2012', '', ( #20 ) ) ;
#122 = AXIS2_PLACEMENT_3D ( 'NONE', #168, #268, #294 ) ;
#123 = FACE_OUTER_BOUND ( 'NONE', #314, .T. ) ;
#124 = DIRECTION ( 'NONE',  ( 0.000000000000000000, 0.000000000000000000, -1.000000000000000000 ) ) ;
#125 = CARTESIAN_POINT ( 'NONE',  ( -14.90689317382087609, 7.654042494670954648E-16, 6.249999999999997335 ) ) ;
#126 = DIRECTION ( 'NONE',  ( 0.000000000000000000, 0.000000000000000000, 1.000000000000000000 ) ) ;
#127 = DIRECTION ( 'NONE',  ( 1.000000000000000000, 0.000000000000000000, 0.000000000000000000 ) ) ;
#128 = AXIS2_PLACEMENT_3D ( 'NONE', #249, #95, #68 ) ;
#129 = DIRECTION ( 'NONE',  ( 0.000000000000000000, 0.000000000000000000, 1.000000000000000000 ) ) ;
#130 = EDGE_CURVE ( 'NONE', #171, #9, #98, .T. ) ;
#131 = APPROVAL_ROLE ( '' ) ;
#132 = APPROVAL_PERSON_ORGANIZATION ( #1, #96, #311 ) ;
#133 = PERSON_AND_ORGANIZATION ( #27, #92 ) ;
#134 = VECTOR ( 'NONE', #327, 1000.000000000000000 ) ;
#135 = ORIENTED_EDGE ( 'NONE', *, *, #176, .F. ) ;
#136 = COORDINATED_UNIVERSAL_TIME_OFFSET ( 1, 0, .AHEAD. ) ;
#137 = CC_DESIGN_DATE_AND_TIME_ASSIGNMENT ( #56, #82, ( #299 ) ) ;
#138 = VERTEX_POINT ( 'NONE', #149 ) ;
#139 = DIRECTION ( 'NONE',  ( -0.000000000000000000, 0.000000000000000000, -1.000000000000000000 ) ) ;
#140 = ORIENTED_EDGE ( 'NONE', *, *, #35, .F. ) ;
#141 = DIRECTION ( 'NONE',  ( 1.000000000000000000, 0.000000000000000000, 0.000000000000000000 ) ) ;
#142 = MANIFOLD_SOLID_BREP ( 'Zkosení1', #58 ) ;
#143 = ORIENTED_EDGE ( 'NONE', *, *, #176, .T. ) ;
#144 = DIRECTION ( 'NONE',  ( 0.000000000000000000, 0.000000000000000000, 1.000000000000000000 ) ) ;
#145 = ORIENTED_EDGE ( 'NONE', *, *, #3, .T. ) ;
#146 = DIRECTION ( 'NONE',  ( 0.000000000000000000, 0.000000000000000000, -1.000000000000000000 ) ) ;
#147 = AXIS2_PLACEMENT_3D ( 'NONE', #157, #76, #300 ) ;
#148 = CARTESIAN_POINT ( 'NONE',  ( -15.20689317382087680, 0.000000000000000000, 6.550000000000002487 ) ) ;
#149 = CARTESIAN_POINT ( 'NONE',  ( -0.02530055955734817480, 0.000000000000000000, -6.524699440442649490 ) ) ;
#150 = APPLICATION_PROTOCOL_DEFINITION ( 'international standard', 'config_control_design', 1994, #84 ) ;
#151 = ADVANCED_FACE ( 'NONE', ( #74 ), #153, .F. ) ;
#152 = DIRECTION ( 'NONE',  ( 0.000000000000000000, 0.000000000000000000, -1.000000000000000000 ) ) ;
#153 = CONICAL_SURFACE ( 'NONE', #275, 6.249999999999997335, 0.7853981633974425058 ) ;
#154 = SPHERICAL_SURFACE ( 'NONE', #147, 10.00000000000000178 ) ;
#155 = CC_DESIGN_PERSON_AND_ORGANIZATION_ASSIGNMENT ( #133, #109, ( #283 ) ) ;
#156 = DIRECTION ( 'NONE',  ( 0.000000000000000000, 0.000000000000000000, 1.000000000000000000 ) ) ;
#157 = CARTESIAN_POINT ( 'NONE',  ( -7.603446586910437510, -8.673617379884035472E-16, 0.000000000000000000 ) ) ;
#158 = EDGE_CURVE ( 'NONE', #9, #220, #263, .T. ) ;
#159 = DATE_TIME_ROLE ( 'classification_date' ) ;
#160 = LOCAL_TIME ( 10, 54, 16.00000000000000000, #110 ) ;
#161 = DATE_AND_TIME ( #112, #205 ) ;
#162 = CIRCLE ( 'NONE', #128, 6.524699440442653042 ) ;
#163 = CIRCLE ( 'NONE', #182, 10.00000000000000178 ) ;
#164 = ADVANCED_FACE ( 'NONE', ( #123 ), #113, .F. ) ;
#165 = ADVANCED_BREP_SHAPE_REPRESENTATION ( 'A_0224-2012', ( #142, #312 ), #277 ) ;
#166 = ORIENTED_EDGE ( 'NONE', *, *, #88, .F. ) ;
#167 = ORIENTED_EDGE ( 'NONE', *, *, #286, .F. ) ;
#168 = CARTESIAN_POINT ( 'NONE',  ( -0.02530055955734817480, 0.000000000000000000, 0.000000000000000000 ) ) ;
#169 = EDGE_LOOP ( 'NONE', ( #271, #222, #273, #198 ) ) ;
#170 = DIRECTION ( 'NONE',  ( -1.423505173226667542E-32, 1.224646799147353207E-16, 1.000000000000000000 ) ) ;
#171 = VERTEX_POINT ( 'NONE', #125 ) ;
#172 = FACE_OUTER_BOUND ( 'NONE', #169, .T. ) ;
#173 = ORIENTED_EDGE ( 'NONE', *, *, #187, .T. ) ;
#174 = CYLINDRICAL_SURFACE ( 'NONE', #225, 6.249999999999997335 ) ;
#175 = CIRCLE ( 'NONE', #80, 6.524699440442650378 ) ;
#176 = EDGE_CURVE ( 'NONE', #9, #316, #199, .T. ) ;
#177 = FACE_OUTER_BOUND ( 'NONE', #218, .T. ) ;
#178 = DIRECTION ( 'NONE',  ( 1.000000000000000000, -0.000000000000000000, -0.000000000000000000 ) ) ;
#179 = CC_DESIGN_APPROVAL ( #96, ( #299 ) ) ;
#180 = AXIS2_PLACEMENT_3D ( 'NONE', #258, #54, #208 ) ;
#181 = FACE_OUTER_BOUND ( 'NONE', #226, .T. ) ;
#182 = AXIS2_PLACEMENT_3D ( 'NONE', #43, #170, #231 ) ;
#183 = APPROVAL_ROLE ( '' ) ;
#184 = PRODUCT_RELATED_PRODUCT_CATEGORY ( 'detail', '', ( #121 ) ) ;
#185 = PERSON_AND_ORGANIZATION ( #27, #92 ) ;
#186 = SHAPE_DEFINITION_REPRESENTATION ( #73, #165 ) ;
#187 = EDGE_CURVE ( 'NONE', #293, #138, #6, .T. ) ;
#188 = CIRCLE ( 'NONE', #267, 6.249999999999997335 ) ;
#189 = ORIENTED_EDGE ( 'NONE', *, *, #236, .T. ) ;
#190 = ORIENTED_EDGE ( 'NONE', *, *, #75, .F. ) ;
#191 = CC_DESIGN_PERSON_AND_ORGANIZATION_ASSIGNMENT ( #107, #212, ( #299 ) ) ;
#192 = CARTESIAN_POINT ( 'NONE',  ( -0.3000000000000030420, 7.654042494670954648E-16, 6.249999999999997335 ) ) ;
#193 = ORIENTED_EDGE ( 'NONE', *, *, #228, .T. ) ;
#194 = DIRECTION ( 'NONE',  ( 1.000000000000000000, -0.000000000000000000, -0.000000000000000000 ) ) ;
#195 = CIRCLE ( 'NONE', #234, 6.524699440442653042 ) ;
#196 = ORIENTED_EDGE ( 'NONE', *, *, #8, .F. ) ;
#197 = DIRECTION ( 'NONE',  ( 0.7071067811865516806, 8.659560562354883554E-17, 0.7071067811865434649 ) ) ;
#198 = ORIENTED_EDGE ( 'NONE', *, *, #228, .F. ) ;
#199 = LINE ( 'NONE', #192, #67 ) ;
#200 = EDGE_CURVE ( 'NONE', #220, #9, #329, .T. ) ;
#201 = DIRECTION ( 'NONE',  ( 1.000000000000000000, 0.000000000000000000, 0.000000000000000000 ) ) ;
#202 = CIRCLE ( 'NONE', #14, 6.524699440442653042 ) ;
#203 = CARTESIAN_POINT ( 'NONE',  ( 0.000000000000000000, 0.000000000000000000, -6.249999999999997335 ) ) ;
#204 = ADVANCED_FACE ( 'NONE', ( #298 ), #253, .T. ) ;
#205 = LOCAL_TIME ( 10, 54, 16.00000000000000000, #136 ) ;
#206 = LOCAL_TIME ( 10, 54, 16.00000000000000000, #81 ) ;
#207 = AXIS2_PLACEMENT_3D ( 'NONE', #254, #276, #152 ) ;
#208 = DIRECTION ( 'NONE',  ( 0.000000000000000000, 0.000000000000000000, 1.000000000000000000 ) ) ;
#209 = CARTESIAN_POINT ( 'NONE',  ( -15.20689317382087680, 0.000000000000000000, 0.000000000000000000 ) ) ;
#210 = DATE_AND_TIME ( #260, #262 ) ;
#211 = APPROVAL_DATE_TIME ( #161, #292 ) ;
#212 = PERSON_AND_ORGANIZATION_ROLE ( 'creator' ) ;
#213 = CC_DESIGN_PERSON_AND_ORGANIZATION_ASSIGNMENT ( #256, #232, ( #121 ) ) ;
#214 = EDGE_LOOP ( 'NONE', ( #44, #5, #243, #241, #145, #42 ) ) ;
#215 = CALENDAR_DATE ( 2023, 10, 1 ) ;
#216 = CONICAL_SURFACE ( 'NONE', #62, 6.550000000000002487, 0.7853981633974541632 ) ;
#217 = EDGE_CURVE ( 'NONE', #313, #71, #49, .T. ) ;
#218 = EDGE_LOOP ( 'NONE', ( #69, #64, #193, #86 ) ) ;
#219 = DIRECTION ( 'NONE',  ( 0.000000000000000000, 0.000000000000000000, 1.000000000000000000 ) ) ;
#220 = VERTEX_POINT ( 'NONE', #235 ) ;
#221 = DIRECTION ( 'NONE',  ( 0.000000000000000000, 0.000000000000000000, -1.000000000000000000 ) ) ;
#222 = ORIENTED_EDGE ( 'NONE', *, *, #130, .T. ) ;
#223 = APPROVAL_PERSON_ORGANIZATION ( #83, #280, #131 ) ;
#224 = CARTESIAN_POINT ( 'NONE',  ( -0.3000000000000030420, 0.000000000000000000, 0.000000000000000000 ) ) ;
#225 = AXIS2_PLACEMENT_3D ( 'NONE', #65, #227, #91 ) ;
#226 = EDGE_LOOP ( 'NONE', ( #97, #66, #90, #87, #196 ) ) ;
#227 = DIRECTION ( 'NONE',  ( 1.000000000000000000, -0.000000000000000000, -0.000000000000000000 ) ) ;
#228 = EDGE_CURVE ( 'NONE', #313, #220, #305, .T. ) ;
#229 = DESIGN_CONTEXT ( 'detailed design', #296, 'design' ) ;
#230 = DIRECTION ( 'NONE',  ( -1.000000000000000000, -0.000000000000000000, -0.000000000000000000 ) ) ;
#231 = DIRECTION ( 'NONE',  ( 0.000000000000000000, -1.000000000000000000, 1.224646799147353207E-16 ) ) ;
#232 = PERSON_AND_ORGANIZATION_ROLE ( 'design_owner' ) ;
#233 = CARTESIAN_POINT ( 'NONE',  ( -0.02530055955734817480, 7.990452285136618172E-16, 6.524699440442649490 ) ) ;
#234 = AXIS2_PLACEMENT_3D ( 'NONE', #103, #127, #129 ) ;
#235 = CARTESIAN_POINT ( 'NONE',  ( -0.3000000000000030420, 0.000000000000000000, -6.249999999999997335 ) ) ;
#236 = EDGE_CURVE ( 'NONE', #138, #285, #259, .T. ) ;
#237 = PERSON_AND_ORGANIZATION ( #27, #92 ) ;
#238 = APPROVAL_DATE_TIME ( #2, #96 ) ;
#239 = EDGE_CURVE ( 'NONE', #111, #266, #195, .T. ) ;
#240 = COORDINATED_UNIVERSAL_TIME_OFFSET ( 1, 0, .AHEAD. ) ;
#241 = ORIENTED_EDGE ( 'NONE', *, *, #35, .T. ) ;
#242 = CALENDAR_DATE ( 2023, 10, 1 ) ;
#243 = ORIENTED_EDGE ( 'NONE', *, *, #88, .T. ) ;
#244 = CARTESIAN_POINT ( 'NONE',  ( 0.000000000000000000, 7.654042494670954648E-16, 6.249999999999997335 ) ) ;
#245 = ADVANCED_FACE ( 'NONE', ( #181 ), #53, .F. ) ;
#246 = ORIENTED_EDGE ( 'NONE', *, *, #187, .F. ) ;
#247 = CARTESIAN_POINT ( 'NONE',  ( -15.18159261426352558, 0.000000000000000000, 0.000000000000000000 ) ) ;
#248 = EDGE_LOOP ( 'NONE', ( #269, #190, #11, #118, #167 ) ) ;
#249 = CARTESIAN_POINT ( 'NONE',  ( -15.18159261426352558, 0.000000000000000000, 0.000000000000000000 ) ) ;
#250 = LINE ( 'NONE', #279, #134 ) ;
#251 = CARTESIAN_POINT ( 'NONE',  ( -14.90689317382087609, 0.000000000000000000, 0.000000000000000000 ) ) ;
#252 = DIRECTION ( 'NONE',  ( -0.7071067811865434649, 0.000000000000000000, 0.7071067811865516806 ) ) ;
#253 = SPHERICAL_SURFACE ( 'NONE', #290, 10.00000000000000178 ) ;
#254 = CARTESIAN_POINT ( 'NONE',  ( -0.02530055955734817480, 0.000000000000000000, 0.000000000000000000 ) ) ;
#255 = EDGE_CURVE ( 'NONE', #220, #138, #250, .T. ) ;
#256 = PERSON_AND_ORGANIZATION ( #27, #92 ) ;
#257 = AXIS2_PLACEMENT_3D ( 'NONE', #297, #274, #72 ) ;
#258 = CARTESIAN_POINT ( 'NONE',  ( -15.18159261426352558, 0.000000000000000000, 0.000000000000000000 ) ) ;
#259 = CIRCLE ( 'NONE', #207, 6.524699440442650378 ) ;
#260 = CALENDAR_DATE ( 2023, 10, 1 ) ;
#261 = APPLICATION_PROTOCOL_DEFINITION ( 'international standard', 'config_control_design', 1994, #296 ) ;
#262 = LOCAL_TIME ( 10, 54, 16.00000000000000000, #240 ) ;
#263 = CIRCLE ( 'NONE', #331, 6.249999999999997335 ) ;
#264 = APPROVAL_STATUS ( 'not_yet_approved' ) ;
#265 = ORIENTED_EDGE ( 'NONE', *, *, #255, .F. ) ;
#266 = VERTEX_POINT ( 'NONE', #281 ) ;
#267 = AXIS2_PLACEMENT_3D ( 'NONE', #251, #115, #144 ) ;
#268 = DIRECTION ( 'NONE',  ( -1.000000000000000000, -0.000000000000000000, -0.000000000000000000 ) ) ;
#269 = ORIENTED_EDGE ( 'NONE', *, *, #217, .F. ) ;
#270 = CARTESIAN_POINT ( 'NONE',  ( -15.18159261426352558, 6.524699440442653042, 0.000000000000000000 ) ) ;
#271 = ORIENTED_EDGE ( 'NONE', *, *, #325, .T. ) ;
#272 = CARTESIAN_POINT ( 'NONE',  ( 0.000000000000000000, 0.000000000000000000, 0.000000000000000000 ) ) ;
#273 = ORIENTED_EDGE ( 'NONE', *, *, #158, .T. ) ;
#274 = DIRECTION ( 'NONE',  ( 1.000000000000000000, 0.000000000000000000, 0.000000000000000000 ) ) ;
#275 = AXIS2_PLACEMENT_3D ( 'NONE', #15, #12, #146 ) ;
#276 = DIRECTION ( 'NONE',  ( -1.000000000000000000, -0.000000000000000000, -0.000000000000000000 ) ) ;
#277 =( GEOMETRIC_REPRESENTATION_CONTEXT ( 3 ) GLOBAL_UNCERTAINTY_ASSIGNED_CONTEXT ( ( #16 ) ) GLOBAL_UNIT_ASSIGNED_CONTEXT ( ( #79, #303, #328 ) ) REPRESENTATION_CONTEXT ( 'NONE', 'WORKASPACE' ) );
#278 = CARTESIAN_POINT ( 'NONE',  ( -14.90689317382087609, 0.000000000000000000, -6.249999999999997335 ) ) ;
#279 = CARTESIAN_POINT ( 'NONE',  ( -0.3000000000000030420, 0.000000000000000000, -6.249999999999997335 ) ) ;
#280 = APPROVAL ( #282, 'NEURÈENÝ' ) ;
#281 = CARTESIAN_POINT ( 'NONE',  ( -15.18159261426352558, -6.524699440442653042, 7.990452285136620144E-16 ) ) ;
#282 = APPROVAL_STATUS ( 'not_yet_approved' ) ;
#283 = SECURITY_CLASSIFICATION ( '', '', #37 ) ;
#284 = AXIS2_PLACEMENT_3D ( 'NONE', #272, #324, #99 ) ;
#285 = VERTEX_POINT ( 'NONE', #301 ) ;
#286 = EDGE_CURVE ( 'NONE', #71, #63, #321, .T. ) ;
#287 = ORIENTED_EDGE ( 'NONE', *, *, #100, .T. ) ;
#288 = CARTESIAN_POINT ( 'NONE',  ( -15.20689317382087680, 0.000000000000000000, 0.000000000000000000 ) ) ;
#289 = ORIENTED_EDGE ( 'NONE', *, *, #158, .F. ) ;
#290 = AXIS2_PLACEMENT_3D ( 'NONE', #22, #126, #326 ) ;
#291 = CARTESIAN_POINT ( 'NONE',  ( -7.603446586910437510, -8.673617379884035472E-16, 0.000000000000000000 ) ) ;
#292 = APPROVAL ( #310, 'NEURÈENÝ' ) ;
#293 = VERTEX_POINT ( 'NONE', #330 ) ;
#294 = DIRECTION ( 'NONE',  ( 0.000000000000000000, 0.000000000000000000, -1.000000000000000000 ) ) ;
#295 = ORIENTED_EDGE ( 'NONE', *, *, #255, .T. ) ;
#296 = APPLICATION_CONTEXT ( 'configuration controlled 3d designs of mechanical parts and assemblies' ) ;
#297 = CARTESIAN_POINT ( 'NONE',  ( -0.3000000000000030420, 0.000000000000000000, 0.000000000000000000 ) ) ;
#298 = FACE_OUTER_BOUND ( 'NONE', #214, .T. ) ;
#299 = PRODUCT_DEFINITION ( 'NEZNÁMÝ', '', #33, #229 ) ;
#300 = DIRECTION ( 'NONE',  ( -8.673617379884034239E-17, 1.000000000000000000, 0.000000000000000000 ) ) ;
#301 = CARTESIAN_POINT ( 'NONE',  ( -0.02530055955734817480, -6.524699440442651266, 7.990452285136620144E-16 ) ) ;
#302 = CC_DESIGN_APPROVAL ( #280, ( #33 ) ) ;
#303 =( NAMED_UNIT ( * ) PLANE_ANGLE_UNIT ( ) SI_UNIT ( $, .RADIAN. ) );
#304 = VECTOR ( 'NONE', #101, 1000.000000000000000 ) ;
#305 = LINE ( 'NONE', #203, #47 ) ;
#306 = DIRECTION ( 'NONE',  ( 0.000000000000000000, 0.000000000000000000, 1.000000000000000000 ) ) ;
#307 = ADVANCED_FACE ( 'NONE', ( #55 ), #154, .T. ) ;
#308 = DATE_AND_TIME ( #31, #160 ) ;
#309 = VECTOR ( 'NONE', #194, 1000.000000000000000 ) ;
#310 = APPROVAL_STATUS ( 'not_yet_approved' ) ;
#311 = APPROVAL_ROLE ( '' ) ;
#312 = AXIS2_PLACEMENT_3D ( 'NONE', #50, #77, #102 ) ;
#313 = VERTEX_POINT ( 'NONE', #278 ) ;
#314 = EDGE_LOOP ( 'NONE', ( #135, #40, #295, #246, #93 ) ) ;
#315 = DIRECTION ( 'NONE',  ( 1.000000000000000000, 0.000000000000000000, 0.000000000000000000 ) ) ;
#316 = VERTEX_POINT ( 'NONE', #233 ) ;
#317 = CC_DESIGN_PERSON_AND_ORGANIZATION_ASSIGNMENT ( #237, #36, ( #33 ) ) ;
#318 = CARTESIAN_POINT ( 'NONE',  ( -0.02530055955734817480, 0.000000000000000000, 0.000000000000000000 ) ) ;
#319 = LOCAL_TIME ( 10, 54, 16.00000000000000000, #29 ) ;
#320 = ORIENTED_EDGE ( 'NONE', *, *, #236, .F. ) ;
#321 = CIRCLE ( 'NONE', #180, 6.524699440442653042 ) ;
#322 = DIRECTION ( 'NONE',  ( 0.000000000000000000, 0.000000000000000000, -1.000000000000000000 ) ) ;
#323 = EDGE_LOOP ( 'NONE', ( #166, #287, #114, #116, #173, #189 ) ) ;
#324 = DIRECTION ( 'NONE',  ( 1.000000000000000000, -0.000000000000000000, -0.000000000000000000 ) ) ;
#325 = EDGE_CURVE ( 'NONE', #313, #171, #61, .T. ) ;
#326 = DIRECTION ( 'NONE',  ( -8.673617379884034239E-17, 1.000000000000000000, 0.000000000000000000 ) ) ;
#327 = DIRECTION ( 'NONE',  ( 0.7071067811865516806, 0.000000000000000000, -0.7071067811865434649 ) ) ;
#328 =( NAMED_UNIT ( * ) SI_UNIT ( $, .STERADIAN. ) SOLID_ANGLE_UNIT ( ) );
#329 = CIRCLE ( 'NONE', #257, 6.249999999999997335 ) ;
#330 = CARTESIAN_POINT ( 'NONE',  ( -0.02530055955734817480, 6.524699440442651266, 0.000000000000000000 ) ) ;
#331 = AXIS2_PLACEMENT_3D ( 'NONE', #120, #201, #7 ) ;
ENDSEC;
END-ISO-10303-21;
