ISO-10303-21;
HEADER;
FILE_DESCRIPTION (( 'STEP AP214' ),
    '1' );
FILE_NAME ('A6_60x12x12.STEP',
    '2022-12-06T09:35:42',
    ( '' ),
    ( '' ),
    'SwSTEP 2.0',
    'SolidWorks 2019',
    '' );
FILE_SCHEMA (( 'AUTOMOTIVE_DESIGN' ));
ENDSEC;

DATA;
#1 = UNCERTAINTY_MEASURE_WITH_UNIT (LENGTH_MEASURE( 1.000000000000000082E-05 ), #233, 'distance_accuracy_value', 'NONE');
#2 = PRODUCT_DEFINITION_SHAPE ( 'NONE', 'NONE',  #370 ) ;
#3 = DIRECTION ( 'NONE',  ( 0.000000000000000000, 0.000000000000000000, 1.000000000000000000 ) ) ;
#4 = APPLICATION_CONTEXT ( 'automotive_design' ) ;
#5 = CIRCLE ( 'NONE', #200, 3.000000000000002665 ) ;
#6 = CIRCLE ( 'NONE', #249, 2.000000000000001776 ) ;
#7 = ORIENTED_EDGE ( 'NONE', *, *, #218, .F. ) ;
#8 = PRODUCT_DEFINITION_FORMATION_WITH_SPECIFIED_SOURCE ( 'LIBOVOLNÝ', '', #278, .NOT_KNOWN. ) ;
#9 = CARTESIAN_POINT ( 'NONE',  ( 0.000000000000000000, 0.000000000000000000, 0.000000000000000000 ) ) ;
#10 = FACE_BOUND ( 'NONE', #79, .T. ) ;
#11 = EDGE_LOOP ( 'NONE', ( #252, #24, #266, #77 ) ) ;
#12 = AXIS2_PLACEMENT_3D ( 'NONE', #235, #331, #269 ) ;
#13 = CARTESIAN_POINT ( 'NONE',  ( 7.654042494670956620E-16, 0.9999999999999961142, -6.249999999999998224 ) ) ;
#14 = ORIENTED_EDGE ( 'NONE', *, *, #248, .T. ) ;
#15 = CYLINDRICAL_SURFACE ( 'NONE', #224, 29.00000000000000355 ) ;
#16 = VERTEX_POINT ( 'NONE', #365 ) ;
#17 = EDGE_CURVE ( 'NONE', #247, #358, #377, .T. ) ;
#18 = DIRECTION ( 'NONE',  ( 0.000000000000000000, 0.000000000000000000, 1.000000000000000000 ) ) ;
#19 = DIRECTION ( 'NONE',  ( -0.000000000000000000, 1.000000000000000000, -0.000000000000000000 ) ) ;
#20 = EDGE_LOOP ( 'NONE', ( #375, #325 ) ) ;
#21 = COLOUR_RGB ( '',1.000000000000000000, 1.000000000000000000, 1.000000000000000000 ) ;
#22 = AXIS2_PLACEMENT_3D ( 'NONE', #207, #394, #26 ) ;
#23 = ORIENTED_EDGE ( 'NONE', *, *, #385, .T. ) ;
#24 = ORIENTED_EDGE ( 'NONE', *, *, #364, .T. ) ;
#25 = CARTESIAN_POINT ( 'NONE',  ( 7.654042494670956620E-16, 0.000000000000000000, -6.249999999999999112 ) ) ;
#26 = DIRECTION ( 'NONE',  ( 1.000000000000000000, 0.000000000000000000, 0.000000000000000000 ) ) ;
#27 = CARTESIAN_POINT ( 'NONE',  ( 0.000000000000000000, -11.00000000000000178, 0.000000000000000000 ) ) ;
#28 = DIRECTION ( 'NONE',  ( 0.000000000000000000, 0.000000000000000000, 1.000000000000000000 ) ) ;
#29 = CIRCLE ( 'NONE', #343, 30.00000000000000355 ) ;
#30 = PRESENTATION_STYLE_ASSIGNMENT (( #204 ) ) ;
#31 = TOROIDAL_SURFACE ( 'NONE', #213, 27.00000000000000355, 3.000000000000000888 ) ;
#32 = CARTESIAN_POINT ( 'NONE',  ( 27.00000000000000355, -2.375529404792310157E-15, 0.000000000000000000 ) ) ;
#33 = EDGE_CURVE ( 'NONE', #56, #282, #63, .T. ) ;
#34 = DIRECTION ( 'NONE',  ( 0.000000000000000000, 0.000000000000000000, 1.000000000000000000 ) ) ;
#35 = AXIS2_PLACEMENT_3D ( 'NONE', #311, #185, #61 ) ;
#36 = DIRECTION ( 'NONE',  ( 1.224646799147353454E-16, 0.000000000000000000, -1.000000000000000000 ) ) ;
#37 = ORIENTED_EDGE ( 'NONE', *, *, #364, .F. ) ;
#38 = AXIS2_PLACEMENT_3D ( 'NONE', #82, #264, #360 ) ;
#39 = CARTESIAN_POINT ( 'NONE',  ( 0.000000000000000000, -2.000000000000001776, 0.000000000000000000 ) ) ;
#40 = AXIS2_PLACEMENT_3D ( 'NONE', #57, #238, #144 ) ;
#41 = EDGE_CURVE ( 'NONE', #357, #257, #29, .T. ) ;
#42 = CARTESIAN_POINT ( 'NONE',  ( 0.000000000000000000, -2.000000000000001776, 27.00000000000000355 ) ) ;
#43 = EDGE_CURVE ( 'NONE', #358, #247, #396, .T. ) ;
#44 = DIRECTION ( 'NONE',  ( 0.000000000000000000, 0.000000000000000000, 1.000000000000000000 ) ) ;
#45 = EDGE_LOOP ( 'NONE', ( #287, #141, #106, #121 ) ) ;
#46 = APPLICATION_CONTEXT ( 'automotive_design' ) ;
#47 = DIRECTION ( 'NONE',  ( -0.000000000000000000, 1.000000000000000000, -0.000000000000000000 ) ) ;
#48 = EDGE_LOOP ( 'NONE', ( #165, #298, #199, #54 ) ) ;
#49 = MECHANICAL_DESIGN_GEOMETRIC_PRESENTATION_REPRESENTATION (  '', ( #139 ), #397 ) ;
#50 = CIRCLE ( 'NONE', #102, 6.250000000000000000 ) ;
#51 = APPLICATION_PROTOCOL_DEFINITION ( 'draft international standard', 'automotive_design', 1998, #46 ) ;
#52 = ORIENTED_EDGE ( 'NONE', *, *, #372, .F. ) ;
#53 = EDGE_CURVE ( 'NONE', #195, #170, #5, .T. ) ;
#54 = ORIENTED_EDGE ( 'NONE', *, *, #372, .T. ) ;
#55 = DIRECTION ( 'NONE',  ( 0.000000000000000000, -1.000000000000000000, 0.000000000000000000 ) ) ;
#56 = VERTEX_POINT ( 'NONE', #153 ) ;
#57 = CARTESIAN_POINT ( 'NONE',  ( 0.000000000000000000, -2.000000000000001776, 27.00000000000000355 ) ) ;
#58 = PRESENTATION_LAYER_ASSIGNMENT (  '', '', ( #139 ) ) ;
#59 = CARTESIAN_POINT ( 'NONE',  ( 0.000000000000000000, -8.673617379884035472E-16, 0.000000000000000000 ) ) ;
#60 = AXIS2_PLACEMENT_3D ( 'NONE', #346, #159, #78 ) ;
#61 = DIRECTION ( 'NONE',  ( 0.000000000000000000, 0.000000000000000000, 1.000000000000000000 ) ) ;
#62 = PLANE ( 'NONE',  #193 ) ;
#63 = CIRCLE ( 'NONE', #74, 29.00000000000000000 ) ;
#64 = PLANE ( 'NONE',  #315 ) ;
#65 = CIRCLE ( 'NONE', #348, 27.00000000000000355 ) ;
#66 = EDGE_CURVE ( 'NONE', #56, #358, #123, .T. ) ;
#67 = MANIFOLD_SOLID_BREP ( 'Rotace tenkostìnný1', #191 ) ;
#68 = CARTESIAN_POINT ( 'NONE',  ( 0.000000000000000000, -8.673617379884035472E-16, 27.00000000000000355 ) ) ;
#69 = PRODUCT_DEFINITION_CONTEXT ( 'detailed design', #4, 'design' ) ;
#70 = EDGE_CURVE ( 'NONE', #305, #195, #131, .T. ) ;
#71 = CIRCLE ( 'NONE', #371, 29.00000000000000000 ) ;
#72 = DIRECTION ( 'NONE',  ( 0.000000000000000000, 0.000000000000000000, 1.000000000000000000 ) ) ;
#73 = DIRECTION ( 'NONE',  ( -0.000000000000000000, 1.000000000000000000, -0.000000000000000000 ) ) ;
#74 = AXIS2_PLACEMENT_3D ( 'NONE', #130, #214, #34 ) ;
#75 = AXIS2_PLACEMENT_3D ( 'NONE', #302, #384, #175 ) ;
#76 = DIRECTION ( 'NONE',  ( 0.000000000000000000, 0.000000000000000000, 1.000000000000000000 ) ) ;
#77 = ORIENTED_EDGE ( 'NONE', *, *, #308, .F. ) ;
#78 = DIRECTION ( 'NONE',  ( 0.000000000000000000, 0.000000000000000000, 1.000000000000000000 ) ) ;
#79 = EDGE_LOOP ( 'NONE', ( #158, #395 ) ) ;
#80 = CYLINDRICAL_SURFACE ( 'NONE', #108, 6.249999999999999112 ) ;
#81 = ORIENTED_EDGE ( 'NONE', *, *, #33, .T. ) ;
#82 = CARTESIAN_POINT ( 'NONE',  ( 0.000000000000000000, -2.000000000000001776, 0.000000000000000000 ) ) ;
#83 = EDGE_LOOP ( 'NONE', ( #81, #14 ) ) ;
#84 = DIRECTION ( 'NONE',  ( -0.000000000000000000, 1.000000000000000000, -0.000000000000000000 ) ) ;
#85 = SURFACE_SIDE_STYLE ('',( #143 ) ) ;
#86 = VERTEX_POINT ( 'NONE', #128 ) ;
#87 = FACE_BOUND ( 'NONE', #83, .T. ) ;
#88 = SURFACE_STYLE_FILL_AREA ( #361 ) ;
#89 = CARTESIAN_POINT ( 'NONE',  ( 0.000000000000000000, -2.000000000000001776, 29.00000000000000355 ) ) ;
#90 = CIRCLE ( 'NONE', #237, 6.249999999999998224 ) ;
#91 =( LENGTH_UNIT ( ) NAMED_UNIT ( * ) SI_UNIT ( .MILLI., .METRE. ) );
#92 = DIRECTION ( 'NONE',  ( 0.000000000000000000, 0.000000000000000000, 1.000000000000000000 ) ) ;
#93 = FACE_BOUND ( 'NONE', #148, .T. ) ;
#94 = DIRECTION ( 'NONE',  ( -0.000000000000000000, 1.000000000000000000, -0.000000000000000000 ) ) ;
#95 = ADVANCED_FACE ( 'NONE', ( #93, #155 ), #64, .T. ) ;
#96 = TOROIDAL_SURFACE ( 'NONE', #38, 27.00000000000000355, 2.000000000000000888 ) ;
#97 = AXIS2_PLACEMENT_3D ( 'NONE', #286, #221, #76 ) ;
#98 = MECHANICAL_DESIGN_GEOMETRIC_PRESENTATION_REPRESENTATION (  '', ( #369 ), #147 ) ;
#99 = CYLINDRICAL_SURFACE ( 'NONE', #283, 6.249999999999999112 ) ;
#100 = VERTEX_POINT ( 'NONE', #68 ) ;
#101 = DIRECTION ( 'NONE',  ( -0.000000000000000000, 1.000000000000000000, -0.000000000000000000 ) ) ;
#102 = AXIS2_PLACEMENT_3D ( 'NONE', #299, #120, #92 ) ;
#103 = DIRECTION ( 'NONE',  ( -0.000000000000000000, 1.000000000000000000, -0.000000000000000000 ) ) ;
#104 = CARTESIAN_POINT ( 'NONE',  ( 0.000000000000000000, 0.9999999999999986677, 0.000000000000000000 ) ) ;
#105 = EDGE_CURVE ( 'NONE', #247, #86, #6, .T. ) ;
#106 = ORIENTED_EDGE ( 'NONE', *, *, #367, .T. ) ;
#107 = DIRECTION ( 'NONE',  ( 0.000000000000000000, 0.000000000000000000, 1.000000000000000000 ) ) ;
#108 = AXIS2_PLACEMENT_3D ( 'NONE', #9, #316, #318 ) ;
#109 = CARTESIAN_POINT ( 'NONE',  ( 0.000000000000000000, -11.00000000000000178, 30.00000000000000355 ) ) ;
#110 = ORIENTED_EDGE ( 'NONE', *, *, #245, .F. ) ;
#111 = ORIENTED_EDGE ( 'NONE', *, *, #248, .F. ) ;
#112 = CARTESIAN_POINT ( 'NONE',  ( 3.551475717527324818E-15, 0.000000000000000000, -29.00000000000000355 ) ) ;
#113 = CARTESIAN_POINT ( 'NONE',  ( 0.000000000000000000, -3.883697071596216766E-15, 6.250000000000000000 ) ) ;
#114 = ORIENTED_EDGE ( 'NONE', *, *, #385, .F. ) ;
#115 = DIRECTION ( 'NONE',  ( -0.000000000000000000, 1.000000000000000000, -0.000000000000000000 ) ) ;
#116 = CIRCLE ( 'NONE', #60, 6.249999999999998224 ) ;
#117 = DIRECTION ( 'NONE',  ( 0.000000000000000000, 0.000000000000000000, 1.000000000000000000 ) ) ;
#118 = ORIENTED_EDGE ( 'NONE', *, *, #161, .F. ) ;
#119 = DIRECTION ( 'NONE',  ( -0.000000000000000000, 1.000000000000000000, -0.000000000000000000 ) ) ;
#120 = DIRECTION ( 'NONE',  ( -0.000000000000000000, 1.000000000000000000, -0.000000000000000000 ) ) ;
#121 = ORIENTED_EDGE ( 'NONE', *, *, #290, .F. ) ;
#122 =( NAMED_UNIT ( * ) SI_UNIT ( $, .STERADIAN. ) SOLID_ANGLE_UNIT ( ) );
#123 = LINE ( 'NONE', #336, #355 ) ;
#124 = CARTESIAN_POINT ( 'NONE',  ( 0.000000000000000000, 0.9999999999999986677, 27.00000000000000355 ) ) ;
#125 = DIRECTION ( 'NONE',  ( -0.000000000000000000, 1.000000000000000000, -0.000000000000000000 ) ) ;
#126 = AXIS2_PLACEMENT_3D ( 'NONE', #39, #103, #44 ) ;
#127 = COLOUR_RGB ( '',1.000000000000000000, 1.000000000000000000, 1.000000000000000000 ) ;
#128 = CARTESIAN_POINT ( 'NONE',  ( 3.429011037612589670E-15, -8.673617379884035472E-16, -27.00000000000000355 ) ) ;
#129 = EDGE_CURVE ( 'NONE', #257, #195, #284, .T. ) ;
#130 = CARTESIAN_POINT ( 'NONE',  ( 0.000000000000000000, -11.00000000000000178, 0.000000000000000000 ) ) ;
#131 = CIRCLE ( 'NONE', #356, 30.00000000000000711 ) ;
#132 = EDGE_LOOP ( 'NONE', ( #387, #390 ) ) ;
#133 = AXIS2_PLACEMENT_3D ( 'NONE', #279, #272, #392 ) ;
#134 = PRESENTATION_LAYER_ASSIGNMENT (  '', '', ( #369 ) ) ;
#135 = ADVANCED_FACE ( 'NONE', ( #219 ), #99, .F. ) ;
#136 = CARTESIAN_POINT ( 'NONE',  ( 0.000000000000000000, 0.9999999999999961142, 0.000000000000000000 ) ) ;
#137 = PLANE ( 'NONE',  #312 ) ;
#138 = ORIENTED_EDGE ( 'NONE', *, *, #129, .F. ) ;
#139 = STYLED_ITEM ( 'NONE', ( #30 ), #67 ) ;
#140 = CARTESIAN_POINT ( 'NONE',  ( 27.00000000000000355, 0.9999999999999974465, 0.000000000000000000 ) ) ;
#141 = ORIENTED_EDGE ( 'NONE', *, *, #105, .T. ) ;
#142 = CARTESIAN_POINT ( 'NONE',  ( 0.000000000000000000, 0.000000000000000000, 0.000000000000000000 ) ) ;
#143 = SURFACE_STYLE_FILL_AREA ( #179 ) ;
#144 = DIRECTION ( 'NONE',  ( 0.000000000000000000, 0.000000000000000000, 1.000000000000000000 ) ) ;
#145 = ORIENTED_EDGE ( 'NONE', *, *, #314, .T. ) ;
#146 = CIRCLE ( 'NONE', #40, 3.000000000000002665 ) ;
#147 =( GEOMETRIC_REPRESENTATION_CONTEXT ( 3 ) GLOBAL_UNCERTAINTY_ASSIGNED_CONTEXT ( ( #1 ) ) GLOBAL_UNIT_ASSIGNED_CONTEXT ( ( #233, #328, #149 ) ) REPRESENTATION_CONTEXT ( 'NONE', 'WORKASPACE' ) );
#148 = EDGE_LOOP ( 'NONE', ( #23, #187 ) ) ;
#149 =( NAMED_UNIT ( * ) SI_UNIT ( $, .STERADIAN. ) SOLID_ANGLE_UNIT ( ) );
#150 = DIRECTION ( 'NONE',  ( -0.000000000000000000, 1.000000000000000000, -0.000000000000000000 ) ) ;
#151 = FACE_OUTER_BOUND ( 'NONE', #20, .T. ) ;
#152 = FACE_OUTER_BOUND ( 'NONE', #226, .T. ) ;
#153 = CARTESIAN_POINT ( 'NONE',  ( 0.000000000000000000, -11.00000000000000178, 29.00000000000000000 ) ) ;
#154 = CARTESIAN_POINT ( 'NONE',  ( 0.000000000000000000, 0.9999999999999986677, 0.000000000000000000 ) ) ;
#155 = FACE_OUTER_BOUND ( 'NONE', #382, .T. ) ;
#156 = ORIENTED_EDGE ( 'NONE', *, *, #186, .T. ) ;
#157 = UNCERTAINTY_MEASURE_WITH_UNIT (LENGTH_MEASURE( 1.000000000000000082E-05 ), #91, 'distance_accuracy_value', 'NONE');
#158 = ORIENTED_EDGE ( 'NONE', *, *, #330, .F. ) ;
#159 = DIRECTION ( 'NONE',  ( -0.000000000000000000, 1.000000000000000000, -0.000000000000000000 ) ) ;
#160 = ORIENTED_EDGE ( 'NONE', *, *, #273, .T. ) ;
#161 = EDGE_CURVE ( 'NONE', #16, #329, #363, .T. ) ;
#162 = TOROIDAL_SURFACE ( 'NONE', #97, 27.00000000000000355, 2.000000000000000888 ) ;
#163 = ADVANCED_BREP_SHAPE_REPRESENTATION ( 'A6_60x12x12', ( #67, #22 ), #309 ) ;
#164 = FACE_OUTER_BOUND ( 'NONE', #250, .T. ) ;
#165 = ORIENTED_EDGE ( 'NONE', *, *, #105, .F. ) ;
#166 = CARTESIAN_POINT ( 'NONE',  ( 3.551475717527324030E-15, -11.00000000000000178, -29.00000000000000000 ) ) ;
#167 = ORIENTED_EDGE ( 'NONE', *, *, #33, .F. ) ;
#168 = CIRCLE ( 'NONE', #386, 27.00000000000000355 ) ;
#169 = FILL_AREA_STYLE_COLOUR ( '', #127 ) ;
#170 = VERTEX_POINT ( 'NONE', #178 ) ;
#171 = DIRECTION ( 'NONE',  ( 0.000000000000000000, 0.000000000000000000, 1.000000000000000000 ) ) ;
#172 = ORIENTED_EDGE ( 'NONE', *, *, #186, .F. ) ;
#173 = ADVANCED_FACE ( 'NONE', ( #271 ), #96, .F. ) ;
#174 = CARTESIAN_POINT ( 'NONE',  ( 0.000000000000000000, 0.000000000000000000, 30.00000000000000711 ) ) ;
#175 = DIRECTION ( 'NONE',  ( 0.000000000000000000, 0.000000000000000000, 1.000000000000000000 ) ) ;
#176 = VERTEX_POINT ( 'NONE', #124 ) ;
#177 = AXIS2_PLACEMENT_3D ( 'NONE', #376, #47, #72 ) ;
#178 = CARTESIAN_POINT ( 'NONE',  ( 3.490243377569956456E-15, 0.9999999999999986677, -27.00000000000000355 ) ) ;
#179 = FILL_AREA_STYLE ('',( #169 ) ) ;
#180 = DIRECTION ( 'NONE',  ( -0.000000000000000000, 1.000000000000000000, -0.000000000000000000 ) ) ;
#181 = ADVANCED_FACE ( 'NONE', ( #261 ), #206, .F. ) ;
#182 = DIRECTION ( 'NONE',  ( -0.000000000000000000, 1.000000000000000000, -0.000000000000000000 ) ) ;
#183 = FILL_AREA_STYLE_COLOUR ( '', #21 ) ;
#184 = APPLICATION_PROTOCOL_DEFINITION ( 'draft international standard', 'automotive_design', 1998, #4 ) ;
#185 = DIRECTION ( 'NONE',  ( -0.000000000000000000, 1.000000000000000000, -0.000000000000000000 ) ) ;
#186 = EDGE_CURVE ( 'NONE', #357, #305, #209, .T. ) ;
#187 = ORIENTED_EDGE ( 'NONE', *, *, #222, .T. ) ;
#188 = AXIS2_PLACEMENT_3D ( 'NONE', #391, #119, #18 ) ;
#189 = ADVANCED_FACE ( 'NONE', ( #87, #151 ), #62, .T. ) ;
#190 = DIRECTION ( 'NONE',  ( -0.000000000000000000, 1.000000000000000000, -0.000000000000000000 ) ) ;
#191 = CLOSED_SHELL ( 'NONE', ( #321, #254, #215, #173, #135, #335, #280, #95, #295, #181, #189, #359, #347 ) ) ;
#192 = CARTESIAN_POINT ( 'NONE',  ( 3.673940397442059178E-15, -11.00000000000000178, -30.00000000000000355 ) ) ;
#193 = AXIS2_PLACEMENT_3D ( 'NONE', #268, #55, #274 ) ;
#194 = DIRECTION ( 'NONE',  ( -0.000000000000000000, 1.000000000000000000, -0.000000000000000000 ) ) ;
#195 = VERTEX_POINT ( 'NONE', #388 ) ;
#196 = DIRECTION ( 'NONE',  ( 0.000000000000000000, 0.000000000000000000, 1.000000000000000000 ) ) ;
#197 = EDGE_LOOP ( 'NONE', ( #210, #228, #110, #352 ) ) ;
#198 = DIRECTION ( 'NONE',  ( 0.000000000000000000, 0.000000000000000000, 1.000000000000000000 ) ) ;
#199 = ORIENTED_EDGE ( 'NONE', *, *, #290, .T. ) ;
#200 = AXIS2_PLACEMENT_3D ( 'NONE', #212, #234, #281 ) ;
#201 = EDGE_CURVE ( 'NONE', #305, #176, #146, .T. ) ;
#202 = PRESENTATION_STYLE_ASSIGNMENT (( #304 ) ) ;
#203 = VERTEX_POINT ( 'NONE', #296 ) ;
#204 = SURFACE_STYLE_USAGE ( .BOTH. , #307 ) ;
#205 = VECTOR ( 'NONE', #180, 1000.000000000000000 ) ;
#206 = CYLINDRICAL_SURFACE ( 'NONE', #188, 29.00000000000000355 ) ;
#207 = CARTESIAN_POINT ( 'NONE',  ( 0.000000000000000000, 0.000000000000000000, 0.000000000000000000 ) ) ;
#208 =( NAMED_UNIT ( * ) PLANE_ANGLE_UNIT ( ) SI_UNIT ( $, .RADIAN. ) );
#209 = LINE ( 'NONE', #174, #362 ) ;
#210 = ORIENTED_EDGE ( 'NONE', *, *, #70, .T. ) ;
#211 = DIRECTION ( 'NONE',  ( 0.000000000000000000, 0.000000000000000000, 1.000000000000000000 ) ) ;
#212 = CARTESIAN_POINT ( 'NONE',  ( 3.306546357697854128E-15, -2.000000000000001776, -27.00000000000000355 ) ) ;
#213 = AXIS2_PLACEMENT_3D ( 'NONE', #251, #351, #171 ) ;
#214 = DIRECTION ( 'NONE',  ( -0.000000000000000000, 1.000000000000000000, -0.000000000000000000 ) ) ;
#215 = ADVANCED_FACE ( 'NONE', ( #383 ), #15, .F. ) ;
#216 = CARTESIAN_POINT ( 'NONE',  ( 0.000000000000000000, 0.000000000000000000, 0.000000000000000000 ) ) ;
#217 = ORIENTED_EDGE ( 'NONE', *, *, #161, .T. ) ;
#218 = EDGE_CURVE ( 'NONE', #282, #247, #381, .T. ) ;
#219 = FACE_OUTER_BOUND ( 'NONE', #354, .T. ) ;
#220 = CIRCLE ( 'NONE', #344, 27.00000000000000355 ) ;
#221 = DIRECTION ( 'NONE',  ( -0.000000000000000000, 1.000000000000000000, -0.000000000000000000 ) ) ;
#222 = EDGE_CURVE ( 'NONE', #16, #379, #294, .T. ) ;
#223 = DIRECTION ( 'NONE',  ( -0.000000000000000000, 1.000000000000000000, -0.000000000000000000 ) ) ;
#224 = AXIS2_PLACEMENT_3D ( 'NONE', #142, #84, #301 ) ;
#225 = EDGE_LOOP ( 'NONE', ( #7, #167, #230, #259 ) ) ;
#226 = EDGE_LOOP ( 'NONE', ( #138, #145, #156, #37 ) ) ;
#227 = FACE_OUTER_BOUND ( 'NONE', #322, .T. ) ;
#228 = ORIENTED_EDGE ( 'NONE', *, *, #53, .T. ) ;
#229 = LINE ( 'NONE', #262, #332 ) ;
#230 = ORIENTED_EDGE ( 'NONE', *, *, #66, .T. ) ;
#231 = VECTOR ( 'NONE', #241, 1000.000000000000000 ) ;
#232 = ORIENTED_EDGE ( 'NONE', *, *, #367, .F. ) ;
#233 =( LENGTH_UNIT ( ) NAMED_UNIT ( * ) SI_UNIT ( .MILLI., .METRE. ) );
#234 = DIRECTION ( 'NONE',  ( 1.000000000000000000, 0.000000000000000000, 1.224646799147353207E-16 ) ) ;
#235 = CARTESIAN_POINT ( 'NONE',  ( 0.000000000000000000, 0.000000000000000000, 0.000000000000000000 ) ) ;
#236 = DIRECTION ( 'NONE',  ( -0.000000000000000000, 1.000000000000000000, -0.000000000000000000 ) ) ;
#237 = AXIS2_PLACEMENT_3D ( 'NONE', #136, #190, #107 ) ;
#238 = DIRECTION ( 'NONE',  ( -1.000000000000000000, 0.000000000000000000, 0.000000000000000000 ) ) ;
#239 = CARTESIAN_POINT ( 'NONE',  ( 0.000000000000000000, -8.673617379884035472E-16, 0.000000000000000000 ) ) ;
#240 = CARTESIAN_POINT ( 'NONE',  ( 0.000000000000000000, -2.000000000000001776, 0.000000000000000000 ) ) ;
#241 = DIRECTION ( 'NONE',  ( -0.000000000000000000, 1.000000000000000000, -0.000000000000000000 ) ) ;
#242 = DIRECTION ( 'NONE',  ( 0.000000000000000000, 0.000000000000000000, 1.000000000000000000 ) ) ;
#243 = SHAPE_DEFINITION_REPRESENTATION ( #2, #163 ) ;
#244 = UNCERTAINTY_MEASURE_WITH_UNIT (LENGTH_MEASURE( 1.000000000000000082E-05 ), #297, 'distance_accuracy_value', 'NONE');
#245 = EDGE_CURVE ( 'NONE', #176, #170, #65, .T. ) ;
#246 = TOROIDAL_SURFACE ( 'NONE', #126, 27.00000000000000355, 3.000000000000000888 ) ;
#247 = VERTEX_POINT ( 'NONE', #277 ) ;
#248 = EDGE_CURVE ( 'NONE', #282, #56, #71, .T. ) ;
#249 = AXIS2_PLACEMENT_3D ( 'NONE', #258, #340, #36 ) ;
#250 = EDGE_LOOP ( 'NONE', ( #342, #293, #373, #172 ) ) ;
#251 = CARTESIAN_POINT ( 'NONE',  ( 0.000000000000000000, -2.000000000000001776, 0.000000000000000000 ) ) ;
#252 = ORIENTED_EDGE ( 'NONE', *, *, #53, .F. ) ;
#253 = CARTESIAN_POINT ( 'NONE',  ( 0.000000000000000000, -2.000000000000001776, 30.00000000000000711 ) ) ;
#254 = ADVANCED_FACE ( 'NONE', ( #164 ), #349, .T. ) ;
#255 = DIRECTION ( 'NONE',  ( 0.000000000000000000, -1.000000000000000000, 0.000000000000000000 ) ) ;
#256 = AXIS2_PLACEMENT_3D ( 'NONE', #337, #182, #28 ) ;
#257 = VERTEX_POINT ( 'NONE', #192 ) ;
#258 = CARTESIAN_POINT ( 'NONE',  ( 3.306546357697854128E-15, -2.000000000000001776, -27.00000000000000355 ) ) ;
#259 = ORIENTED_EDGE ( 'NONE', *, *, #43, .T. ) ;
#260 = PRODUCT_RELATED_PRODUCT_CATEGORY ( 'part', '', ( #278 ) ) ;
#261 = FACE_OUTER_BOUND ( 'NONE', #225, .T. ) ;
#262 = CARTESIAN_POINT ( 'NONE',  ( 0.000000000000000000, 0.000000000000000000, 6.249999999999999112 ) ) ;
#263 = ORIENTED_EDGE ( 'NONE', *, *, #393, .T. ) ;
#264 = DIRECTION ( 'NONE',  ( -0.000000000000000000, 1.000000000000000000, -0.000000000000000000 ) ) ;
#265 = CYLINDRICAL_SURFACE ( 'NONE', #12, 30.00000000000000711 ) ;
#266 = ORIENTED_EDGE ( 'NONE', *, *, #201, .T. ) ;
#267 = CIRCLE ( 'NONE', #75, 30.00000000000000711 ) ;
#268 = CARTESIAN_POINT ( 'NONE',  ( 30.00000000000000355, -11.00000000000000178, 0.000000000000000000 ) ) ;
#269 = DIRECTION ( 'NONE',  ( 0.000000000000000000, 0.000000000000000000, 1.000000000000000000 ) ) ;
#270 = ORIENTED_EDGE ( 'NONE', *, *, #218, .T. ) ;
#271 = FACE_OUTER_BOUND ( 'NONE', #45, .T. ) ;
#272 = DIRECTION ( 'NONE',  ( -0.000000000000000000, 1.000000000000000000, -0.000000000000000000 ) ) ;
#273 = EDGE_CURVE ( 'NONE', #329, #203, #116, .T. ) ;
#274 = DIRECTION ( 'NONE',  ( 0.000000000000000000, -0.000000000000000000, -1.000000000000000000 ) ) ;
#275 = DIRECTION ( 'NONE',  ( -0.000000000000000000, 1.000000000000000000, -0.000000000000000000 ) ) ;
#276 = CIRCLE ( 'NONE', #338, 2.000000000000001776 ) ;
#277 = CARTESIAN_POINT ( 'NONE',  ( 3.551475717527324818E-15, -2.000000000000001776, -29.00000000000000355 ) ) ;
#278 = PRODUCT ( 'A6_60x12x12', 'A6_60x12x12', '', ( #310 ) ) ;
#279 = CARTESIAN_POINT ( 'NONE',  ( 0.000000000000000000, -2.000000000000001776, 0.000000000000000000 ) ) ;
#280 = ADVANCED_FACE ( 'NONE', ( #227 ), #80, .F. ) ;
#281 = DIRECTION ( 'NONE',  ( 1.224646799147351975E-16, 0.000000000000000000, -1.000000000000000000 ) ) ;
#282 = VERTEX_POINT ( 'NONE', #166 ) ;
#283 = AXIS2_PLACEMENT_3D ( 'NONE', #216, #341, #345 ) ;
#284 = LINE ( 'NONE', #285, #368 ) ;
#285 = CARTESIAN_POINT ( 'NONE',  ( 3.673940397442059967E-15, 0.000000000000000000, -30.00000000000000711 ) ) ;
#286 = CARTESIAN_POINT ( 'NONE',  ( 0.000000000000000000, -2.000000000000001776, 0.000000000000000000 ) ) ;
#287 = ORIENTED_EDGE ( 'NONE', *, *, #17, .F. ) ;
#288 = AXIS2_PLACEMENT_3D ( 'NONE', #374, #223, #196 ) ;
#289 = EDGE_LOOP ( 'NONE', ( #111, #270, #300, #306 ) ) ;
#290 = EDGE_CURVE ( 'NONE', #358, #100, #276, .T. ) ;
#291 = DIRECTION ( 'NONE',  ( 0.000000000000000000, 0.000000000000000000, 1.000000000000000000 ) ) ;
#292 = DIRECTION ( 'NONE',  ( -1.000000000000000000, 0.000000000000000000, 0.000000000000000000 ) ) ;
#293 = ORIENTED_EDGE ( 'NONE', *, *, #129, .T. ) ;
#294 = CIRCLE ( 'NONE', #256, 6.250000000000000000 ) ;
#295 = ADVANCED_FACE ( 'NONE', ( #323 ), #162, .F. ) ;
#296 = CARTESIAN_POINT ( 'NONE',  ( 0.000000000000000000, 0.9999999999999961142, 6.249999999999998224 ) ) ;
#297 =( LENGTH_UNIT ( ) NAMED_UNIT ( * ) SI_UNIT ( .MILLI., .METRE. ) );
#298 = ORIENTED_EDGE ( 'NONE', *, *, #43, .F. ) ;
#299 = CARTESIAN_POINT ( 'NONE',  ( 0.000000000000000000, -3.883697071596216766E-15, 0.000000000000000000 ) ) ;
#300 = ORIENTED_EDGE ( 'NONE', *, *, #17, .T. ) ;
#301 = DIRECTION ( 'NONE',  ( 0.000000000000000000, 0.000000000000000000, 1.000000000000000000 ) ) ;
#302 = CARTESIAN_POINT ( 'NONE',  ( 0.000000000000000000, -2.000000000000001776, 0.000000000000000000 ) ) ;
#303 = AXIS2_PLACEMENT_3D ( 'NONE', #59, #125, #117 ) ;
#304 = SURFACE_STYLE_USAGE ( .BOTH. , #85 ) ;
#305 = VERTEX_POINT ( 'NONE', #253 ) ;
#306 = ORIENTED_EDGE ( 'NONE', *, *, #66, .F. ) ;
#307 = SURFACE_SIDE_STYLE ('',( #88 ) ) ;
#308 = EDGE_CURVE ( 'NONE', #170, #176, #168, .T. ) ;
#309 =( GEOMETRIC_REPRESENTATION_CONTEXT ( 3 ) GLOBAL_UNCERTAINTY_ASSIGNED_CONTEXT ( ( #244 ) ) GLOBAL_UNIT_ASSIGNED_CONTEXT ( ( #297, #333, #122 ) ) REPRESENTATION_CONTEXT ( 'NONE', 'WORKASPACE' ) );
#310 = PRODUCT_CONTEXT ( 'NONE', #46, 'mechanical' ) ;
#311 = CARTESIAN_POINT ( 'NONE',  ( 0.000000000000000000, -2.000000000000001776, 0.000000000000000000 ) ) ;
#312 = AXIS2_PLACEMENT_3D ( 'NONE', #140, #255, #378 ) ;
#313 = FACE_OUTER_BOUND ( 'NONE', #132, .T. ) ;
#314 = EDGE_CURVE ( 'NONE', #257, #357, #317, .T. ) ;
#315 = AXIS2_PLACEMENT_3D ( 'NONE', #32, #366, #339 ) ;
#316 = DIRECTION ( 'NONE',  ( -0.000000000000000000, 1.000000000000000000, -0.000000000000000000 ) ) ;
#317 = CIRCLE ( 'NONE', #177, 30.00000000000000355 ) ;
#318 = DIRECTION ( 'NONE',  ( 0.000000000000000000, 0.000000000000000000, 1.000000000000000000 ) ) ;
#319 = ORIENTED_EDGE ( 'NONE', *, *, #222, .F. ) ;
#320 = DIRECTION ( 'NONE',  ( 0.000000000000000000, 0.000000000000000000, 1.000000000000000000 ) ) ;
#321 = ADVANCED_FACE ( 'NONE', ( #353 ), #246, .T. ) ;
#322 = EDGE_LOOP ( 'NONE', ( #118, #114, #263, #327 ) ) ;
#323 = FACE_OUTER_BOUND ( 'NONE', #48, .T. ) ;
#324 = CIRCLE ( 'NONE', #303, 27.00000000000000355 ) ;
#325 = ORIENTED_EDGE ( 'NONE', *, *, #314, .F. ) ;
#326 = DIRECTION ( 'NONE',  ( -0.000000000000000000, 1.000000000000000000, -0.000000000000000000 ) ) ;
#327 = ORIENTED_EDGE ( 'NONE', *, *, #330, .T. ) ;
#328 =( NAMED_UNIT ( * ) PLANE_ANGLE_UNIT ( ) SI_UNIT ( $, .RADIAN. ) );
#329 = VERTEX_POINT ( 'NONE', #13 ) ;
#330 = EDGE_CURVE ( 'NONE', #203, #329, #90, .T. ) ;
#331 = DIRECTION ( 'NONE',  ( -0.000000000000000000, 1.000000000000000000, -0.000000000000000000 ) ) ;
#332 = VECTOR ( 'NONE', #19, 1000.000000000000000 ) ;
#333 =( NAMED_UNIT ( * ) PLANE_ANGLE_UNIT ( ) SI_UNIT ( $, .RADIAN. ) );
#334 =( NAMED_UNIT ( * ) SI_UNIT ( $, .STERADIAN. ) SOLID_ANGLE_UNIT ( ) );
#335 = ADVANCED_FACE ( 'NONE', ( #10, #313 ), #137, .F. ) ;
#336 = CARTESIAN_POINT ( 'NONE',  ( 0.000000000000000000, 0.000000000000000000, 29.00000000000000355 ) ) ;
#337 = CARTESIAN_POINT ( 'NONE',  ( 0.000000000000000000, -3.883697071596216766E-15, 0.000000000000000000 ) ) ;
#338 = AXIS2_PLACEMENT_3D ( 'NONE', #42, #292, #291 ) ;
#339 = DIRECTION ( 'NONE',  ( 0.000000000000000000, -0.000000000000000000, -1.000000000000000000 ) ) ;
#340 = DIRECTION ( 'NONE',  ( 1.000000000000000000, 0.000000000000000000, 1.224646799147353207E-16 ) ) ;
#341 = DIRECTION ( 'NONE',  ( -0.000000000000000000, 1.000000000000000000, -0.000000000000000000 ) ) ;
#342 = ORIENTED_EDGE ( 'NONE', *, *, #41, .T. ) ;
#343 = AXIS2_PLACEMENT_3D ( 'NONE', #27, #150, #3 ) ;
#344 = AXIS2_PLACEMENT_3D ( 'NONE', #239, #326, #389 ) ;
#345 = DIRECTION ( 'NONE',  ( 0.000000000000000000, 0.000000000000000000, 1.000000000000000000 ) ) ;
#346 = CARTESIAN_POINT ( 'NONE',  ( 0.000000000000000000, 0.9999999999999961142, 0.000000000000000000 ) ) ;
#347 = ADVANCED_FACE ( 'NONE', ( #380 ), #31, .T. ) ;
#348 = AXIS2_PLACEMENT_3D ( 'NONE', #154, #94, #211 ) ;
#349 = CYLINDRICAL_SURFACE ( 'NONE', #288, 30.00000000000000711 ) ;
#350 = ORIENTED_EDGE ( 'NONE', *, *, #393, .F. ) ;
#351 = DIRECTION ( 'NONE',  ( -0.000000000000000000, 1.000000000000000000, -0.000000000000000000 ) ) ;
#352 = ORIENTED_EDGE ( 'NONE', *, *, #201, .F. ) ;
#353 = FACE_OUTER_BOUND ( 'NONE', #197, .T. ) ;
#354 = EDGE_LOOP ( 'NONE', ( #319, #217, #160, #350 ) ) ;
#355 = VECTOR ( 'NONE', #236, 1000.000000000000000 ) ;
#356 = AXIS2_PLACEMENT_3D ( 'NONE', #240, #275, #242 ) ;
#357 = VERTEX_POINT ( 'NONE', #109 ) ;
#358 = VERTEX_POINT ( 'NONE', #89 ) ;
#359 = ADVANCED_FACE ( 'NONE', ( #152 ), #265, .T. ) ;
#360 = DIRECTION ( 'NONE',  ( 0.000000000000000000, 0.000000000000000000, 1.000000000000000000 ) ) ;
#361 = FILL_AREA_STYLE ('',( #183 ) ) ;
#362 = VECTOR ( 'NONE', #115, 1000.000000000000000 ) ;
#363 = LINE ( 'NONE', #25, #205 ) ;
#364 = EDGE_CURVE ( 'NONE', #195, #305, #267, .T. ) ;
#365 = CARTESIAN_POINT ( 'NONE',  ( 7.654042494670958593E-16, -3.883697071596216766E-15, -6.250000000000000888 ) ) ;
#366 = DIRECTION ( 'NONE',  ( 0.000000000000000000, -1.000000000000000000, 0.000000000000000000 ) ) ;
#367 = EDGE_CURVE ( 'NONE', #86, #100, #324, .T. ) ;
#368 = VECTOR ( 'NONE', #101, 1000.000000000000000 ) ;
#369 = STYLED_ITEM ( 'NONE', ( #202 ), #163 ) ;
#370 = PRODUCT_DEFINITION ( 'NEZNÁMÝ', '', #8, #69 ) ;
#371 = AXIS2_PLACEMENT_3D ( 'NONE', #398, #73, #198 ) ;
#372 = EDGE_CURVE ( 'NONE', #100, #86, #220, .T. ) ;
#373 = ORIENTED_EDGE ( 'NONE', *, *, #70, .F. ) ;
#374 = CARTESIAN_POINT ( 'NONE',  ( 0.000000000000000000, 0.000000000000000000, 0.000000000000000000 ) ) ;
#375 = ORIENTED_EDGE ( 'NONE', *, *, #41, .F. ) ;
#376 = CARTESIAN_POINT ( 'NONE',  ( 0.000000000000000000, -11.00000000000000178, 0.000000000000000000 ) ) ;
#377 = CIRCLE ( 'NONE', #35, 29.00000000000000355 ) ;
#378 = DIRECTION ( 'NONE',  ( 0.000000000000000000, -0.000000000000000000, -1.000000000000000000 ) ) ;
#379 = VERTEX_POINT ( 'NONE', #113 ) ;
#380 = FACE_OUTER_BOUND ( 'NONE', #11, .T. ) ;
#381 = LINE ( 'NONE', #112, #231 ) ;
#382 = EDGE_LOOP ( 'NONE', ( #52, #232 ) ) ;
#383 = FACE_OUTER_BOUND ( 'NONE', #289, .T. ) ;
#384 = DIRECTION ( 'NONE',  ( -0.000000000000000000, 1.000000000000000000, -0.000000000000000000 ) ) ;
#385 = EDGE_CURVE ( 'NONE', #379, #16, #50, .T. ) ;
#386 = AXIS2_PLACEMENT_3D ( 'NONE', #104, #194, #320 ) ;
#387 = ORIENTED_EDGE ( 'NONE', *, *, #245, .T. ) ;
#388 = CARTESIAN_POINT ( 'NONE',  ( 3.673940397442059967E-15, -2.000000000000001776, -30.00000000000000711 ) ) ;
#389 = DIRECTION ( 'NONE',  ( 0.000000000000000000, 0.000000000000000000, 1.000000000000000000 ) ) ;
#390 = ORIENTED_EDGE ( 'NONE', *, *, #308, .T. ) ;
#391 = CARTESIAN_POINT ( 'NONE',  ( 0.000000000000000000, 0.000000000000000000, 0.000000000000000000 ) ) ;
#392 = DIRECTION ( 'NONE',  ( 0.000000000000000000, 0.000000000000000000, 1.000000000000000000 ) ) ;
#393 = EDGE_CURVE ( 'NONE', #379, #203, #229, .T. ) ;
#394 = DIRECTION ( 'NONE',  ( 0.000000000000000000, 0.000000000000000000, 1.000000000000000000 ) ) ;
#395 = ORIENTED_EDGE ( 'NONE', *, *, #273, .F. ) ;
#396 = CIRCLE ( 'NONE', #133, 29.00000000000000355 ) ;
#397 =( GEOMETRIC_REPRESENTATION_CONTEXT ( 3 ) GLOBAL_UNCERTAINTY_ASSIGNED_CONTEXT ( ( #157 ) ) GLOBAL_UNIT_ASSIGNED_CONTEXT ( ( #91, #208, #334 ) ) REPRESENTATION_CONTEXT ( 'NONE', 'WORKASPACE' ) );
#398 = CARTESIAN_POINT ( 'NONE',  ( 0.000000000000000000, -11.00000000000000178, 0.000000000000000000 ) ) ;
ENDSEC;
END-ISO-10303-21;
