ISO-10303-21;
HEADER;
FILE_DESCRIPTION (( 'STEP AP203' ),
    '1' );
FILE_NAME ('A_0791-042.STEP',
    '2021-05-11T09:08:12',
    ( '' ),
    ( '' ),
    'SwSTEP 2.0',
    'SolidWorks 2019',
    '' );
FILE_SCHEMA (( 'CONFIG_CONTROL_DESIGN' ));
ENDSEC;

DATA;
#1 = CARTESIAN_POINT ( 'NONE',  ( 1.000000000000000666, -17.17090562550501431, 70.00000000000000000 ) ) ;
#2 = ADVANCED_FACE ( 'NONE', ( #285 ), #20, .F. ) ;
#3 = CARTESIAN_POINT ( 'NONE',  ( 0.000000000000000000, 0.000000000000000000, 0.000000000000000000 ) ) ;
#4 = AXIS2_PLACEMENT_3D ( 'NONE', #278, #244, #216 ) ;
#5 = CARTESIAN_POINT ( 'NONE',  ( -0.9999999999999993339, -17.17090562550501431, 0.000000000000000000 ) ) ;
#6 = CYLINDRICAL_SURFACE ( 'NONE', #75, 19.19999999999999574 ) ;
#7 = EDGE_CURVE ( 'NONE', #233, #320, #258, .T. ) ;
#8 = DIRECTION ( 'NONE',  ( -0.000000000000000000, -1.000000000000000000, -0.000000000000000000 ) ) ;
#9 = VECTOR ( 'NONE', #152, 1000.000000000000000 ) ;
#10 = CARTESIAN_POINT ( 'NONE',  ( -17.19999999999999218, 0.000000000000000000, 70.00000000000000000 ) ) ;
#11 = CARTESIAN_POINT ( 'NONE',  ( -0.9999999999999993339, -20.73004936974082923, 0.000000000000000000 ) ) ;
#12 = COORDINATED_UNIVERSAL_TIME_OFFSET ( 1, 0, .AHEAD. ) ;
#13 = ADVANCED_FACE ( 'NONE', ( #107 ), #350, .F. ) ;
#14 = ORIENTED_EDGE ( 'NONE', *, *, #380, .T. ) ;
#15 = CC_DESIGN_SECURITY_CLASSIFICATION ( #42, ( #330 ) ) ;
#16 = VECTOR ( 'NONE', #148, 1000.000000000000000 ) ;
#17 = PERSON_AND_ORGANIZATION ( #130, #153 ) ;
#18 = CARTESIAN_POINT ( 'NONE',  ( 0.000000000000000000, 0.000000000000000000, 70.00000000000000000 ) ) ;
#19 = APPROVAL_ROLE ( '' ) ;
#20 = PLANE ( 'NONE',  #108 ) ;
#21 = COORDINATED_UNIVERSAL_TIME_OFFSET ( 1, 0, .AHEAD. ) ;
#22 = ORIENTED_EDGE ( 'NONE', *, *, #111, .T. ) ;
#23 = CC_DESIGN_DATE_AND_TIME_ASSIGNMENT ( #194, #47, ( #42 ) ) ;
#24 = VECTOR ( 'NONE', #92, 1000.000000000000000 ) ;
#25 = CALENDAR_DATE ( 2021, 11, 5 ) ;
#26 = AXIS2_PLACEMENT_3D ( 'NONE', #232, #365, #136 ) ;
#27 = ORIENTED_EDGE ( 'NONE', *, *, #237, .T. ) ;
#28 = ORIENTED_EDGE ( 'NONE', *, *, #7, .T. ) ;
#29 = CYLINDRICAL_SURFACE ( 'NONE', #301, 17.19999999999999218 ) ;
#30 = CARTESIAN_POINT ( 'NONE',  ( 1.000000000000000666, -19.17394064870337900, 70.00000000000000000 ) ) ;
#31 = ADVANCED_FACE ( 'NONE', ( #178 ), #147, .T. ) ;
#32 = LINE ( 'NONE', #240, #331 ) ;
#33 = CIRCLE ( 'NONE', #246, 17.19999999999999218 ) ;
#34 = CC_DESIGN_PERSON_AND_ORGANIZATION_ASSIGNMENT ( #372, #337, ( #371 ) ) ;
#35 = DIRECTION ( 'NONE',  ( 0.000000000000000000, 0.000000000000000000, 1.000000000000000000 ) ) ;
#36 = CARTESIAN_POINT ( 'NONE',  ( -0.9999999999999993339, -19.17394064870337900, 0.000000000000000000 ) ) ;
#37 = ORIENTED_EDGE ( 'NONE', *, *, #267, .T. ) ;
#38 = CARTESIAN_POINT ( 'NONE',  ( 19.19999999999999574, 2.351321854362917684E-15, 70.00000000000000000 ) ) ;
#39 = CARTESIAN_POINT ( 'NONE',  ( 1.000000000000000666, -17.17090562550501431, 70.00000000000000000 ) ) ;
#40 = CYLINDRICAL_SURFACE ( 'NONE', #67, 17.19999999999999218 ) ;
#41 = FACE_OUTER_BOUND ( 'NONE', #46, .T. ) ;
#42 = SECURITY_CLASSIFICATION ( '', '', #228 ) ;
#43 = DIRECTION ( 'NONE',  ( -1.000000000000000000, 0.000000000000000000, 0.000000000000000000 ) ) ;
#44 = VERTEX_POINT ( 'NONE', #87 ) ;
#45 =( LENGTH_UNIT ( ) NAMED_UNIT ( * ) SI_UNIT ( .MILLI., .METRE. ) );
#46 = EDGE_LOOP ( 'NONE', ( #296, #37, #195, #316 ) ) ;
#47 = DATE_TIME_ROLE ( 'classification_date' ) ;
#48 = ORIENTED_EDGE ( 'NONE', *, *, #114, .T. ) ;
#49 = EDGE_CURVE ( 'NONE', #327, #355, #209, .T. ) ;
#50 = APPROVAL_STATUS ( 'not_yet_approved' ) ;
#51 = ORIENTED_EDGE ( 'NONE', *, *, #133, .F. ) ;
#52 = APPLICATION_PROTOCOL_DEFINITION ( 'international standard', 'config_control_design', 1994, #305 ) ;
#53 = EDGE_LOOP ( 'NONE', ( #170, #171, #251, #140 ) ) ;
#54 = CC_DESIGN_APPROVAL ( #71, ( #330 ) ) ;
#55 = CYLINDRICAL_SURFACE ( 'NONE', #129, 17.19999999999999218 ) ;
#56 = CARTESIAN_POINT ( 'NONE',  ( 0.000000000000000000, 0.000000000000000000, 70.00000000000000000 ) ) ;
#57 = VERTEX_POINT ( 'NONE', #36 ) ;
#58 = CARTESIAN_POINT ( 'NONE',  ( 0.000000000000000000, 0.000000000000000000, 70.00000000000000000 ) ) ;
#59 = APPROVAL_PERSON_ORGANIZATION ( #250, #71, #281 ) ;
#60 = DIRECTION ( 'NONE',  ( -1.000000000000000000, 0.000000000000000000, 0.000000000000000000 ) ) ;
#61 = CLOSED_SHELL ( 'NONE', ( #79, #89, #348, #31, #150, #2, #184, #368, #191, #13 ) ) ;
#62 = ADVANCED_BREP_SHAPE_REPRESENTATION ( 'A_0791-042', ( #214, #26 ), #217 ) ;
#63 = DIRECTION ( 'NONE',  ( -1.000000000000000000, 0.000000000000000000, 0.000000000000000000 ) ) ;
#64 = ORIENTED_EDGE ( 'NONE', *, *, #105, .F. ) ;
#65 = DIRECTION ( 'NONE',  ( 0.000000000000000000, 0.000000000000000000, 1.000000000000000000 ) ) ;
#66 = CARTESIAN_POINT ( 'NONE',  ( -17.19999999999999218, 0.000000000000000000, 0.000000000000000000 ) ) ;
#67 = AXIS2_PLACEMENT_3D ( 'NONE', #247, #275, #99 ) ;
#68 = EDGE_CURVE ( 'NONE', #355, #210, #264, .T. ) ;
#69 = DIRECTION ( 'NONE',  ( 0.000000000000000000, 0.000000000000000000, 1.000000000000000000 ) ) ;
#70 = CARTESIAN_POINT ( 'NONE',  ( 1.000000000000000666, -19.17394064870337900, 70.00000000000000000 ) ) ;
#71 = APPROVAL ( #317, 'UNSPECIFIED' ) ;
#72 = CARTESIAN_POINT ( 'NONE',  ( 17.19999999999999218, 2.106392494533446599E-15, 70.00000000000000000 ) ) ;
#73 = EDGE_CURVE ( 'NONE', #234, #57, #344, .T. ) ;
#74 = AXIS2_PLACEMENT_3D ( 'NONE', #243, #362, #248 ) ;
#75 = AXIS2_PLACEMENT_3D ( 'NONE', #273, #306, #212 ) ;
#76 = ORIENTED_EDGE ( 'NONE', *, *, #302, .F. ) ;
#77 = PERSON_AND_ORGANIZATION_ROLE ( 'design_owner' ) ;
#78 = DIRECTION ( 'NONE',  ( 0.000000000000000000, 0.000000000000000000, 1.000000000000000000 ) ) ;
#79 = ADVANCED_FACE ( 'NONE', ( #113 ), #29, .F. ) ;
#80 = CALENDAR_DATE ( 2021, 11, 5 ) ;
#81 = ORIENTED_EDGE ( 'NONE', *, *, #274, .T. ) ;
#82 = ORIENTED_EDGE ( 'NONE', *, *, #73, .F. ) ;
#83 = ORIENTED_EDGE ( 'NONE', *, *, #223, .T. ) ;
#84 = LINE ( 'NONE', #326, #166 ) ;
#85 = EDGE_CURVE ( 'NONE', #327, #193, #84, .T. ) ;
#86 = UNCERTAINTY_MEASURE_WITH_UNIT (LENGTH_MEASURE( 1.000000000000000082E-05 ), #45, 'distance_accuracy_value', 'NONE');
#87 = CARTESIAN_POINT ( 'NONE',  ( 17.19999999999999218, 2.106392494533446599E-15, 0.000000000000000000 ) ) ;
#88 = FACE_OUTER_BOUND ( 'NONE', #260, .T. ) ;
#89 = ADVANCED_FACE ( 'NONE', ( #88 ), #55, .F. ) ;
#90 = DIRECTION ( 'NONE',  ( 0.000000000000000000, 0.000000000000000000, 1.000000000000000000 ) ) ;
#91 = AXIS2_PLACEMENT_3D ( 'NONE', #141, #112, #352 ) ;
#92 = DIRECTION ( 'NONE',  ( -0.000000000000000000, -0.000000000000000000, -1.000000000000000000 ) ) ;
#93 = ORIENTED_EDGE ( 'NONE', *, *, #68, .T. ) ;
#94 = DIRECTION ( 'NONE',  ( 1.000000000000000000, 0.000000000000000000, 0.000000000000000000 ) ) ;
#95 = LINE ( 'NONE', #364, #138 ) ;
#96 = EDGE_CURVE ( 'NONE', #161, #234, #270, .T. ) ;
#97 = LINE ( 'NONE', #10, #117 ) ;
#98 = AXIS2_PLACEMENT_3D ( 'NONE', #269, #379, #118 ) ;
#99 = DIRECTION ( 'NONE',  ( -1.000000000000000000, 0.000000000000000000, 0.000000000000000000 ) ) ;
#100 = FACE_OUTER_BOUND ( 'NONE', #53, .T. ) ;
#101 = DATE_AND_TIME ( #314, #229 ) ;
#102 = EDGE_LOOP ( 'NONE', ( #257, #175, #76, #51 ) ) ;
#103 = PERSON_AND_ORGANIZATION_ROLE ( 'classification_officer' ) ;
#104 = ORIENTED_EDGE ( 'NONE', *, *, #49, .F. ) ;
#105 = EDGE_CURVE ( 'NONE', #193, #233, #351, .T. ) ;
#106 = PERSON_AND_ORGANIZATION_ROLE ( 'creator' ) ;
#107 = FACE_OUTER_BOUND ( 'NONE', #288, .T. ) ;
#108 = AXIS2_PLACEMENT_3D ( 'NONE', #338, #78, #135 ) ;
#109 = ORIENTED_EDGE ( 'NONE', *, *, #279, .F. ) ;
#110 = ORIENTED_EDGE ( 'NONE', *, *, #163, .F. ) ;
#111 = EDGE_CURVE ( 'NONE', #44, #286, #151, .T. ) ;
#112 = DIRECTION ( 'NONE',  ( 0.000000000000000000, 0.000000000000000000, 1.000000000000000000 ) ) ;
#113 = FACE_OUTER_BOUND ( 'NONE', #102, .T. ) ;
#114 = EDGE_CURVE ( 'NONE', #341, #347, #203, .T. ) ;
#115 = DIRECTION ( 'NONE',  ( 0.000000000000000000, 0.000000000000000000, 1.000000000000000000 ) ) ;
#116 = DIRECTION ( 'NONE',  ( 1.000000000000000000, 0.000000000000000000, 0.000000000000000000 ) ) ;
#117 = VECTOR ( 'NONE', #186, 1000.000000000000000 ) ;
#118 = DIRECTION ( 'NONE',  ( 1.000000000000000000, 0.000000000000000000, 0.000000000000000000 ) ) ;
#119 = AXIS2_PLACEMENT_3D ( 'NONE', #157, #197, #199 ) ;
#120 = EDGE_LOOP ( 'NONE', ( #225, #345, #282, #235 ) ) ;
#121 = DIRECTION ( 'NONE',  ( 1.000000000000000000, 0.000000000000000000, 0.000000000000000000 ) ) ;
#122 = LINE ( 'NONE', #183, #222 ) ;
#123 = LINE ( 'NONE', #156, #221 ) ;
#124 = AXIS2_PLACEMENT_3D ( 'NONE', #328, #65, #333 ) ;
#125 = EDGE_CURVE ( 'NONE', #341, #57, #32, .T. ) ;
#126 = DIRECTION ( 'NONE',  ( -0.000000000000000000, -0.000000000000000000, -1.000000000000000000 ) ) ;
#127 = COORDINATED_UNIVERSAL_TIME_OFFSET ( 1, 0, .AHEAD. ) ;
#128 = EDGE_LOOP ( 'NONE', ( #145, #48, #311, #168 ) ) ;
#129 = AXIS2_PLACEMENT_3D ( 'NONE', #325, #298, #63 ) ;
#130 = PERSON ( 'UNSPECIFIED', 'UNSPECIFIED', 'UNSPECIFIED', ('UNSPECIFIED'), ('UNSPECIFIED'), ('UNSPECIFIED') ) ;
#131 = PERSON_AND_ORGANIZATION ( #130, #153 ) ;
#132 = ORIENTED_EDGE ( 'NONE', *, *, #339, .F. ) ;
#133 = EDGE_CURVE ( 'NONE', #193, #210, #377, .T. ) ;
#134 = DATE_AND_TIME ( #310, #374 ) ;
#135 = DIRECTION ( 'NONE',  ( 1.000000000000000000, 0.000000000000000000, -0.000000000000000000 ) ) ;
#136 = DIRECTION ( 'NONE',  ( 1.000000000000000000, 0.000000000000000000, 0.000000000000000000 ) ) ;
#137 = ORIENTED_EDGE ( 'NONE', *, *, #85, .F. ) ;
#138 = VECTOR ( 'NONE', #219, 1000.000000000000000 ) ;
#139 = EDGE_CURVE ( 'NONE', #327, #271, #315, .T. ) ;
#140 = ORIENTED_EDGE ( 'NONE', *, *, #339, .T. ) ;
#141 = CARTESIAN_POINT ( 'NONE',  ( 0.000000000000000000, 0.000000000000000000, 70.00000000000000000 ) ) ;
#142 = CARTESIAN_POINT ( 'NONE',  ( 1.000000000000000666, -20.73004936974082923, 0.000000000000000000 ) ) ;
#143 = VECTOR ( 'NONE', #324, 1000.000000000000000 ) ;
#144 = APPROVAL_DATE_TIME ( #261, #292 ) ;
#145 = ORIENTED_EDGE ( 'NONE', *, *, #125, .F. ) ;
#146 = CARTESIAN_POINT ( 'NONE',  ( 0.000000000000000000, 0.000000000000000000, 70.00000000000000000 ) ) ;
#147 = CYLINDRICAL_SURFACE ( 'NONE', #231, 19.19999999999999574 ) ;
#148 = DIRECTION ( 'NONE',  ( 0.000000000000000000, 0.000000000000000000, 1.000000000000000000 ) ) ;
#149 = ORIENTED_EDGE ( 'NONE', *, *, #111, .F. ) ;
#150 = ADVANCED_FACE ( 'NONE', ( #266 ), #381, .T. ) ;
#151 = CIRCLE ( 'NONE', #180, 17.19999999999999218 ) ;
#152 = DIRECTION ( 'NONE',  ( 0.000000000000000000, 0.000000000000000000, 1.000000000000000000 ) ) ;
#153 = ORGANIZATION ( 'UNSPECIFIED', 'UNSPECIFIED', '' ) ;
#154 = PLANE ( 'NONE',  #289 ) ;
#155 = APPROVAL ( #162, 'UNSPECIFIED' ) ;
#156 = CARTESIAN_POINT ( 'NONE',  ( 17.19999999999999218, 2.106392494533446599E-15, 70.00000000000000000 ) ) ;
#157 = CARTESIAN_POINT ( 'NONE',  ( 0.000000000000000000, 0.000000000000000000, 70.00000000000000000 ) ) ;
#158 = PRODUCT_RELATED_PRODUCT_CATEGORY ( 'detail', '', ( #287 ) ) ;
#159 = FACE_OUTER_BOUND ( 'NONE', #128, .T. ) ;
#160 = DATE_TIME_ROLE ( 'creation_date' ) ;
#161 = VERTEX_POINT ( 'NONE', #268 ) ;
#162 = APPROVAL_STATUS ( 'not_yet_approved' ) ;
#163 = EDGE_CURVE ( 'NONE', #320, #347, #33, .T. ) ;
#164 = LOCAL_TIME ( 11, 8, 12.00000000000000000, #226 ) ;
#165 = ORIENTED_EDGE ( 'NONE', *, *, #96, .F. ) ;
#166 = VECTOR ( 'NONE', #321, 1000.000000000000000 ) ;
#167 = PERSON_AND_ORGANIZATION ( #130, #153 ) ;
#168 = ORIENTED_EDGE ( 'NONE', *, *, #237, .F. ) ;
#169 = PERSON_AND_ORGANIZATION_ROLE ( 'design_supplier' ) ;
#170 = ORIENTED_EDGE ( 'NONE', *, *, #267, .F. ) ;
#171 = ORIENTED_EDGE ( 'NONE', *, *, #139, .F. ) ;
#172 = CIRCLE ( 'NONE', #4, 17.19999999999999218 ) ;
#173 = DIRECTION ( 'NONE',  ( 1.000000000000000000, 0.000000000000000000, 0.000000000000000000 ) ) ;
#174 = DIRECTION ( 'NONE',  ( 0.000000000000000000, 0.000000000000000000, -1.000000000000000000 ) ) ;
#175 = ORIENTED_EDGE ( 'NONE', *, *, #279, .T. ) ;
#176 = DIRECTION ( 'NONE',  ( -1.000000000000000000, 0.000000000000000000, 0.000000000000000000 ) ) ;
#177 = CARTESIAN_POINT ( 'NONE',  ( 1.000000000000000666, -20.73004936974082923, 0.000000000000000000 ) ) ;
#178 = FACE_OUTER_BOUND ( 'NONE', #284, .T. ) ;
#179 = VERTEX_POINT ( 'NONE', #356 ) ;
#180 = AXIS2_PLACEMENT_3D ( 'NONE', #262, #294, #241 ) ;
#181 = CARTESIAN_POINT ( 'NONE',  ( -19.19999999999999574, 0.000000000000000000, 0.000000000000000000 ) ) ;
#182 = CIRCLE ( 'NONE', #322, 17.19999999999999218 ) ;
#183 = CARTESIAN_POINT ( 'NONE',  ( -0.9999999999999993339, -20.73004936974082923, 70.00000000000000000 ) ) ;
#184 = ADVANCED_FACE ( 'NONE', ( #100 ), #359, .T. ) ;
#185 = CARTESIAN_POINT ( 'NONE',  ( -0.9999999999999993339, -19.17394064870337900, 70.00000000000000000 ) ) ;
#186 = DIRECTION ( 'NONE',  ( -0.000000000000000000, -0.000000000000000000, -1.000000000000000000 ) ) ;
#187 = CC_DESIGN_APPROVAL ( #292, ( #42 ) ) ;
#188 = APPROVAL_PERSON_ORGANIZATION ( #192, #155, #19 ) ;
#189 = COORDINATED_UNIVERSAL_TIME_OFFSET ( 1, 0, .AHEAD. ) ;
#190 = ORIENTED_EDGE ( 'NONE', *, *, #302, .T. ) ;
#191 = ADVANCED_FACE ( 'NONE', ( #159 ), #154, .F. ) ;
#192 = PERSON_AND_ORGANIZATION ( #130, #153 ) ;
#193 = VERTEX_POINT ( 'NONE', #39 ) ;
#194 = DATE_AND_TIME ( #80, #164 ) ;
#195 = ORIENTED_EDGE ( 'NONE', *, *, #96, .T. ) ;
#196 = AXIS2_PLACEMENT_3D ( 'NONE', #56, #115, #202 ) ;
#197 = DIRECTION ( 'NONE',  ( 0.000000000000000000, 0.000000000000000000, 1.000000000000000000 ) ) ;
#198 = ORIENTED_EDGE ( 'NONE', *, *, #68, .F. ) ;
#199 = DIRECTION ( 'NONE',  ( 1.000000000000000000, 0.000000000000000000, 0.000000000000000000 ) ) ;
#200 = EDGE_LOOP ( 'NONE', ( #137, #230, #83, #14, #370, #110, #375, #64 ) ) ;
#201 = VERTEX_POINT ( 'NONE', #218 ) ;
#202 = DIRECTION ( 'NONE',  ( 1.000000000000000000, 0.000000000000000000, -0.000000000000000000 ) ) ;
#203 = LINE ( 'NONE', #239, #16 ) ;
#204 = CC_DESIGN_PERSON_AND_ORGANIZATION_ASSIGNMENT ( #319, #77, ( #287 ) ) ;
#205 = DIRECTION ( 'NONE',  ( -0.000000000000000000, -0.000000000000000000, -1.000000000000000000 ) ) ;
#206 = CC_DESIGN_PERSON_AND_ORGANIZATION_ASSIGNMENT ( #369, #103, ( #42 ) ) ;
#207 = DIRECTION ( 'NONE',  ( -0.000000000000000000, -0.000000000000000000, -1.000000000000000000 ) ) ;
#208 = LOCAL_TIME ( 11, 8, 12.00000000000000000, #12 ) ;
#209 = LINE ( 'NONE', #30, #24 ) ;
#210 = VERTEX_POINT ( 'NONE', #309 ) ;
#211 = DIRECTION ( 'NONE',  ( 0.000000000000000000, 0.000000000000000000, 1.000000000000000000 ) ) ;
#212 = DIRECTION ( 'NONE',  ( -1.000000000000000000, 0.000000000000000000, 0.000000000000000000 ) ) ;
#213 = APPLICATION_CONTEXT ( 'configuration controlled 3d designs of mechanical parts and assemblies' ) ;
#214 = MANIFOLD_SOLID_BREP ( 'Cut-Extrude1', #61 ) ;
#215 = VECTOR ( 'NONE', #207, 1000.000000000000000 ) ;
#216 = DIRECTION ( 'NONE',  ( 1.000000000000000000, 0.000000000000000000, 0.000000000000000000 ) ) ;
#217 =( GEOMETRIC_REPRESENTATION_CONTEXT ( 3 ) GLOBAL_UNCERTAINTY_ASSIGNED_CONTEXT ( ( #86 ) ) GLOBAL_UNIT_ASSIGNED_CONTEXT ( ( #45, #224, #340 ) ) REPRESENTATION_CONTEXT ( 'NONE', 'WORKASPACE' ) );
#218 = CARTESIAN_POINT ( 'NONE',  ( -0.9999999999999993339, -19.17394064870337900, 70.00000000000000000 ) ) ;
#219 = DIRECTION ( 'NONE',  ( -0.000000000000000000, -0.000000000000000000, -1.000000000000000000 ) ) ;
#220 = APPROVAL_DATE_TIME ( #101, #155 ) ;
#221 = VECTOR ( 'NONE', #280, 1000.000000000000000 ) ;
#222 = VECTOR ( 'NONE', #8, 1000.000000000000000 ) ;
#223 = EDGE_CURVE ( 'NONE', #271, #179, #295, .T. ) ;
#224 =( NAMED_UNIT ( * ) PLANE_ANGLE_UNIT ( ) SI_UNIT ( $, .RADIAN. ) );
#225 = ORIENTED_EDGE ( 'NONE', *, *, #263, .F. ) ;
#226 = COORDINATED_UNIVERSAL_TIME_OFFSET ( 1, 0, .AHEAD. ) ;
#227 = ORIENTED_EDGE ( 'NONE', *, *, #380, .F. ) ;
#228 = SECURITY_CLASSIFICATION_LEVEL ( 'unclassified' ) ;
#229 = LOCAL_TIME ( 11, 8, 12.00000000000000000, #127 ) ;
#230 = ORIENTED_EDGE ( 'NONE', *, *, #139, .T. ) ;
#231 = AXIS2_PLACEMENT_3D ( 'NONE', #291, #205, #60 ) ;
#232 = CARTESIAN_POINT ( 'NONE',  ( 0.000000000000000000, 0.000000000000000000, 0.000000000000000000 ) ) ;
#233 = VERTEX_POINT ( 'NONE', #72 ) ;
#234 = VERTEX_POINT ( 'NONE', #181 ) ;
#235 = ORIENTED_EDGE ( 'NONE', *, *, #274, .F. ) ;
#236 = DIRECTION ( 'NONE',  ( 0.000000000000000000, 0.000000000000000000, 1.000000000000000000 ) ) ;
#237 = EDGE_CURVE ( 'NONE', #57, #201, #335, .T. ) ;
#238 = CIRCLE ( 'NONE', #366, 19.19999999999999574 ) ;
#239 = CARTESIAN_POINT ( 'NONE',  ( -0.9999999999999993339, -17.17090562550501431, 70.00000000000000000 ) ) ;
#240 = CARTESIAN_POINT ( 'NONE',  ( -0.9999999999999993339, -20.73004936974082923, 0.000000000000000000 ) ) ;
#241 = DIRECTION ( 'NONE',  ( 1.000000000000000000, 0.000000000000000000, 0.000000000000000000 ) ) ;
#242 = AXIS2_PLACEMENT_3D ( 'NONE', #3, #35, #173 ) ;
#243 = CARTESIAN_POINT ( 'NONE',  ( 0.000000000000000000, 0.000000000000000000, 70.00000000000000000 ) ) ;
#244 = DIRECTION ( 'NONE',  ( 0.000000000000000000, 0.000000000000000000, 1.000000000000000000 ) ) ;
#245 = CARTESIAN_POINT ( 'NONE',  ( 0.000000000000000000, 0.000000000000000000, 0.000000000000000000 ) ) ;
#246 = AXIS2_PLACEMENT_3D ( 'NONE', #354, #90, #116 ) ;
#247 = CARTESIAN_POINT ( 'NONE',  ( 0.000000000000000000, 0.000000000000000000, 70.00000000000000000 ) ) ;
#248 = DIRECTION ( 'NONE',  ( -1.000000000000000000, 0.000000000000000000, 0.000000000000000000 ) ) ;
#249 = ORIENTED_EDGE ( 'NONE', *, *, #125, .T. ) ;
#250 = PERSON_AND_ORGANIZATION ( #130, #153 ) ;
#251 = ORIENTED_EDGE ( 'NONE', *, *, #49, .T. ) ;
#252 = CALENDAR_DATE ( 2021, 11, 5 ) ;
#253 = DIRECTION ( 'NONE',  ( 0.000000000000000000, 0.000000000000000000, 1.000000000000000000 ) ) ;
#254 = PRODUCT_DEFINITION_SHAPE ( 'NONE', 'NONE',  #371 ) ;
#255 = APPLICATION_PROTOCOL_DEFINITION ( 'international standard', 'config_control_design', 1994, #213 ) ;
#256 = APPROVAL_PERSON_ORGANIZATION ( #167, #292, #343 ) ;
#257 = ORIENTED_EDGE ( 'NONE', *, *, #105, .T. ) ;
#258 = CIRCLE ( 'NONE', #277, 17.19999999999999218 ) ;
#259 = DESIGN_CONTEXT ( 'detailed design', #305, 'design' ) ;
#260 = EDGE_LOOP ( 'NONE', ( #109, #28, #313, #149 ) ) ;
#261 = DATE_AND_TIME ( #25, #307 ) ;
#262 = CARTESIAN_POINT ( 'NONE',  ( 0.000000000000000000, 0.000000000000000000, 0.000000000000000000 ) ) ;
#263 = EDGE_CURVE ( 'NONE', #320, #286, #97, .T. ) ;
#264 = LINE ( 'NONE', #177, #143 ) ;
#265 = ORIENTED_EDGE ( 'NONE', *, *, #133, .T. ) ;
#266 = FACE_OUTER_BOUND ( 'NONE', #200, .T. ) ;
#267 = EDGE_CURVE ( 'NONE', #271, #161, #329, .T. ) ;
#268 = CARTESIAN_POINT ( 'NONE',  ( 19.19999999999999574, 2.351321854362917684E-15, 0.000000000000000000 ) ) ;
#269 = CARTESIAN_POINT ( 'NONE',  ( 0.000000000000000000, 0.000000000000000000, 0.000000000000000000 ) ) ;
#270 = CIRCLE ( 'NONE', #242, 19.19999999999999574 ) ;
#271 = VERTEX_POINT ( 'NONE', #38 ) ;
#272 = CARTESIAN_POINT ( 'NONE',  ( 0.000000000000000000, 0.000000000000000000, 0.000000000000000000 ) ) ;
#273 = CARTESIAN_POINT ( 'NONE',  ( 0.000000000000000000, 0.000000000000000000, 70.00000000000000000 ) ) ;
#274 = EDGE_CURVE ( 'NONE', #286, #341, #172, .T. ) ;
#275 = DIRECTION ( 'NONE',  ( -0.000000000000000000, -0.000000000000000000, -1.000000000000000000 ) ) ;
#276 = CC_DESIGN_PERSON_AND_ORGANIZATION_ASSIGNMENT ( #131, #169, ( #330 ) ) ;
#277 = AXIS2_PLACEMENT_3D ( 'NONE', #18, #253, #373 ) ;
#278 = CARTESIAN_POINT ( 'NONE',  ( 0.000000000000000000, 0.000000000000000000, 0.000000000000000000 ) ) ;
#279 = EDGE_CURVE ( 'NONE', #233, #44, #123, .T. ) ;
#280 = DIRECTION ( 'NONE',  ( -0.000000000000000000, -0.000000000000000000, -1.000000000000000000 ) ) ;
#281 = APPROVAL_ROLE ( '' ) ;
#282 = ORIENTED_EDGE ( 'NONE', *, *, #114, .F. ) ;
#283 = APPROVAL_DATE_TIME ( #312, #71 ) ;
#284 = EDGE_LOOP ( 'NONE', ( #227, #376, #367, #27 ) ) ;
#285 = FACE_OUTER_BOUND ( 'NONE', #318, .T. ) ;
#286 = VERTEX_POINT ( 'NONE', #66 ) ;
#287 = PRODUCT ( 'A_0791-042', 'A_0791-042', '', ( #346 ) ) ;
#288 = EDGE_LOOP ( 'NONE', ( #299, #265, #198, #104 ) ) ;
#289 = AXIS2_PLACEMENT_3D ( 'NONE', #11, #43, #211 ) ;
#290 = CIRCLE ( 'NONE', #119, 19.19999999999999574 ) ;
#291 = CARTESIAN_POINT ( 'NONE',  ( 0.000000000000000000, 0.000000000000000000, 70.00000000000000000 ) ) ;
#292 = APPROVAL ( #50, 'UNSPECIFIED' ) ;
#293 = DIRECTION ( 'NONE',  ( 1.000000000000000000, -0.000000000000000000, 0.000000000000000000 ) ) ;
#294 = DIRECTION ( 'NONE',  ( 0.000000000000000000, 0.000000000000000000, 1.000000000000000000 ) ) ;
#295 = CIRCLE ( 'NONE', #124, 19.19999999999999574 ) ;
#296 = ORIENTED_EDGE ( 'NONE', *, *, #223, .F. ) ;
#297 = DIRECTION ( 'NONE',  ( -0.000000000000000000, -0.000000000000000000, -1.000000000000000000 ) ) ;
#298 = DIRECTION ( 'NONE',  ( -0.000000000000000000, -0.000000000000000000, -1.000000000000000000 ) ) ;
#299 = ORIENTED_EDGE ( 'NONE', *, *, #85, .T. ) ;
#300 = CARTESIAN_POINT ( 'NONE',  ( 19.19999999999999574, 2.351321854362917684E-15, 70.00000000000000000 ) ) ;
#301 = AXIS2_PLACEMENT_3D ( 'NONE', #58, #297, #176 ) ;
#302 = EDGE_CURVE ( 'NONE', #210, #44, #182, .T. ) ;
#303 = CARTESIAN_POINT ( 'NONE',  ( 1.000000000000000666, -19.17394064870337900, 0.000000000000000000 ) ) ;
#304 = FACE_OUTER_BOUND ( 'NONE', #120, .T. ) ;
#305 = APPLICATION_CONTEXT ( 'configuration controlled 3d designs of mechanical parts and assemblies' ) ;
#306 = DIRECTION ( 'NONE',  ( -0.000000000000000000, -0.000000000000000000, -1.000000000000000000 ) ) ;
#307 = LOCAL_TIME ( 11, 8, 12.00000000000000000, #21 ) ;
#308 = AXIS2_PLACEMENT_3D ( 'NONE', #142, #293, #174 ) ;
#309 = CARTESIAN_POINT ( 'NONE',  ( 1.000000000000000666, -17.17090562550501431, 0.000000000000000000 ) ) ;
#310 = CALENDAR_DATE ( 2021, 11, 5 ) ;
#311 = ORIENTED_EDGE ( 'NONE', *, *, #361, .T. ) ;
#312 = DATE_AND_TIME ( #252, #208 ) ;
#313 = ORIENTED_EDGE ( 'NONE', *, *, #263, .T. ) ;
#314 = CALENDAR_DATE ( 2021, 11, 5 ) ;
#315 = CIRCLE ( 'NONE', #360, 19.19999999999999574 ) ;
#316 = ORIENTED_EDGE ( 'NONE', *, *, #334, .F. ) ;
#317 = APPROVAL_STATUS ( 'not_yet_approved' ) ;
#318 = EDGE_LOOP ( 'NONE', ( #132, #93, #190, #22, #81, #249, #82, #165 ) ) ;
#319 = PERSON_AND_ORGANIZATION ( #130, #153 ) ;
#320 = VERTEX_POINT ( 'NONE', #332 ) ;
#321 = DIRECTION ( 'NONE',  ( 0.000000000000000000, 1.000000000000000000, 0.000000000000000000 ) ) ;
#322 = AXIS2_PLACEMENT_3D ( 'NONE', #272, #357, #94 ) ;
#323 = DIRECTION ( 'NONE',  ( 1.000000000000000000, 0.000000000000000000, 0.000000000000000000 ) ) ;
#324 = DIRECTION ( 'NONE',  ( 0.000000000000000000, 1.000000000000000000, 0.000000000000000000 ) ) ;
#325 = CARTESIAN_POINT ( 'NONE',  ( 0.000000000000000000, 0.000000000000000000, 70.00000000000000000 ) ) ;
#326 = CARTESIAN_POINT ( 'NONE',  ( 1.000000000000000666, -20.73004936974082923, 70.00000000000000000 ) ) ;
#327 = VERTEX_POINT ( 'NONE', #70 ) ;
#328 = CARTESIAN_POINT ( 'NONE',  ( 0.000000000000000000, 0.000000000000000000, 70.00000000000000000 ) ) ;
#329 = LINE ( 'NONE', #300, #336 ) ;
#330 = PRODUCT_DEFINITION_FORMATION_WITH_SPECIFIED_SOURCE ( 'ANY', '', #287, .NOT_KNOWN. ) ;
#331 = VECTOR ( 'NONE', #349, 1000.000000000000000 ) ;
#332 = CARTESIAN_POINT ( 'NONE',  ( -17.19999999999999218, 0.000000000000000000, 70.00000000000000000 ) ) ;
#333 = DIRECTION ( 'NONE',  ( 1.000000000000000000, 0.000000000000000000, 0.000000000000000000 ) ) ;
#334 = EDGE_CURVE ( 'NONE', #179, #234, #95, .T. ) ;
#335 = LINE ( 'NONE', #185, #9 ) ;
#336 = VECTOR ( 'NONE', #126, 1000.000000000000000 ) ;
#337 = PERSON_AND_ORGANIZATION_ROLE ( 'creator' ) ;
#338 = CARTESIAN_POINT ( 'NONE',  ( 0.000000000000000000, 0.000000000000000000, 0.000000000000000000 ) ) ;
#339 = EDGE_CURVE ( 'NONE', #355, #161, #238, .T. ) ;
#340 =( NAMED_UNIT ( * ) SI_UNIT ( $, .STERADIAN. ) SOLID_ANGLE_UNIT ( ) );
#341 = VERTEX_POINT ( 'NONE', #5 ) ;
#342 = CC_DESIGN_DATE_AND_TIME_ASSIGNMENT ( #134, #160, ( #371 ) ) ;
#343 = APPROVAL_ROLE ( '' ) ;
#344 = CIRCLE ( 'NONE', #98, 19.19999999999999574 ) ;
#345 = ORIENTED_EDGE ( 'NONE', *, *, #163, .T. ) ;
#346 = MECHANICAL_CONTEXT ( 'NONE', #213, 'mechanical' ) ;
#347 = VERTEX_POINT ( 'NONE', #358 ) ;
#348 = ADVANCED_FACE ( 'NONE', ( #41 ), #6, .T. ) ;
#349 = DIRECTION ( 'NONE',  ( -0.000000000000000000, -1.000000000000000000, -0.000000000000000000 ) ) ;
#350 = PLANE ( 'NONE',  #308 ) ;
#351 = CIRCLE ( 'NONE', #91, 17.19999999999999218 ) ;
#352 = DIRECTION ( 'NONE',  ( 1.000000000000000000, 0.000000000000000000, 0.000000000000000000 ) ) ;
#353 = SHAPE_DEFINITION_REPRESENTATION ( #254, #62 ) ;
#354 = CARTESIAN_POINT ( 'NONE',  ( 0.000000000000000000, 0.000000000000000000, 70.00000000000000000 ) ) ;
#355 = VERTEX_POINT ( 'NONE', #303 ) ;
#356 = CARTESIAN_POINT ( 'NONE',  ( -19.19999999999999574, 0.000000000000000000, 70.00000000000000000 ) ) ;
#357 = DIRECTION ( 'NONE',  ( 0.000000000000000000, 0.000000000000000000, 1.000000000000000000 ) ) ;
#358 = CARTESIAN_POINT ( 'NONE',  ( -0.9999999999999993339, -17.17090562550501431, 70.00000000000000000 ) ) ;
#359 = CYLINDRICAL_SURFACE ( 'NONE', #74, 19.19999999999999574 ) ;
#360 = AXIS2_PLACEMENT_3D ( 'NONE', #146, #236, #323 ) ;
#361 = EDGE_CURVE ( 'NONE', #347, #201, #122, .T. ) ;
#362 = DIRECTION ( 'NONE',  ( -0.000000000000000000, -0.000000000000000000, -1.000000000000000000 ) ) ;
#363 = CC_DESIGN_PERSON_AND_ORGANIZATION_ASSIGNMENT ( #17, #106, ( #330 ) ) ;
#364 = CARTESIAN_POINT ( 'NONE',  ( -19.19999999999999574, 0.000000000000000000, 70.00000000000000000 ) ) ;
#365 = DIRECTION ( 'NONE',  ( 0.000000000000000000, 0.000000000000000000, 1.000000000000000000 ) ) ;
#366 = AXIS2_PLACEMENT_3D ( 'NONE', #245, #69, #121 ) ;
#367 = ORIENTED_EDGE ( 'NONE', *, *, #73, .T. ) ;
#368 = ADVANCED_FACE ( 'NONE', ( #304 ), #40, .F. ) ;
#369 = PERSON_AND_ORGANIZATION ( #130, #153 ) ;
#370 = ORIENTED_EDGE ( 'NONE', *, *, #361, .F. ) ;
#371 = PRODUCT_DEFINITION ( 'UNKNOWN', '', #330, #259 ) ;
#372 = PERSON_AND_ORGANIZATION ( #130, #153 ) ;
#373 = DIRECTION ( 'NONE',  ( 1.000000000000000000, 0.000000000000000000, 0.000000000000000000 ) ) ;
#374 = LOCAL_TIME ( 11, 8, 12.00000000000000000, #189 ) ;
#375 = ORIENTED_EDGE ( 'NONE', *, *, #7, .F. ) ;
#376 = ORIENTED_EDGE ( 'NONE', *, *, #334, .T. ) ;
#377 = LINE ( 'NONE', #1, #215 ) ;
#378 = CC_DESIGN_APPROVAL ( #155, ( #371 ) ) ;
#379 = DIRECTION ( 'NONE',  ( 0.000000000000000000, 0.000000000000000000, 1.000000000000000000 ) ) ;
#380 = EDGE_CURVE ( 'NONE', #179, #201, #290, .T. ) ;
#381 = PLANE ( 'NONE',  #196 ) ;
ENDSEC;
END-ISO-10303-21;
