ISO-10303-21;
HEADER;
FILE_DESCRIPTION (( 'STEP AP203' ),
    '1' );
FILE_NAME ('A_0813-100-12Z.STEP',
    '2022-12-14T09:15:51',
    ( '' ),
    ( '' ),
    'SwSTEP 2.0',
    'SolidWorks 2019',
    '' );
FILE_SCHEMA (( 'CONFIG_CONTROL_DESIGN' ));
ENDSEC;

DATA;
#1 = DIRECTION ( 'NONE',  ( -0.000000000000000000, -0.000000000000000000, -1.000000000000000000 ) ) ;
#2 = CARTESIAN_POINT ( 'NONE',  ( 4.000000000000000000, 0.000000000000000000, 100.0000000000000000 ) ) ;
#3 = APPLICATION_CONTEXT ( 'configuration controlled 3d designs of mechanical parts and assemblies' ) ;
#4 = DIRECTION ( 'NONE',  ( -0.000000000000000000, -0.000000000000000000, -1.000000000000000000 ) ) ;
#5 = AXIS2_PLACEMENT_3D ( 'NONE', #288, #218, #379 ) ;
#6 = ORIENTED_EDGE ( 'NONE', *, *, #262, .T. ) ;
#7 = APPROVAL_DATE_TIME ( #90, #124 ) ;
#8 = VERTEX_POINT ( 'NONE', #154 ) ;
#9 = CIRCLE ( 'NONE', #139, 6.000000000000005329 ) ;
#10 = DATE_TIME_ROLE ( 'classification_date' ) ;
#11 = APPROVAL_PERSON_ORGANIZATION ( #28, #317, #84 ) ;
#12 = ORIENTED_EDGE ( 'NONE', *, *, #351, .T. ) ;
#13 = DESIGN_CONTEXT ( 'detailed design', #20, 'design' ) ;
#14 = DIRECTION ( 'NONE',  ( 0.000000000000000000, 0.000000000000000000, -1.000000000000000000 ) ) ;
#15 = CARTESIAN_POINT ( 'NONE',  ( -6.000000000000005329, 0.000000000000000000, 0.000000000000000000 ) ) ;
#16 = ADVANCED_FACE ( 'NONE', ( #127 ), #101, .T. ) ;
#17 = DIRECTION ( 'NONE',  ( -1.000000000000000000, 0.000000000000000000, 0.000000000000000000 ) ) ;
#18 = CARTESIAN_POINT ( 'NONE',  ( 0.000000000000000000, 0.000000000000000000, 0.000000000000000000 ) ) ;
#19 = ORIENTED_EDGE ( 'NONE', *, *, #169, .T. ) ;
#20 = APPLICATION_CONTEXT ( 'configuration controlled 3d designs of mechanical parts and assemblies' ) ;
#21 = FACE_OUTER_BOUND ( 'NONE', #31, .T. ) ;
#22 = CARTESIAN_POINT ( 'NONE',  ( 0.000000000000000000, 0.000000000000000000, 108.9999999999999858 ) ) ;
#23 = DIRECTION ( 'NONE',  ( 1.000000000000000000, 0.000000000000000000, 0.000000000000000000 ) ) ;
#24 = CC_DESIGN_PERSON_AND_ORGANIZATION_ASSIGNMENT ( #170, #330, ( #112 ) ) ;
#25 = PERSON_AND_ORGANIZATION ( #166, #383 ) ;
#26 = DIRECTION ( 'NONE',  ( -0.000000000000000000, -0.000000000000000000, -1.000000000000000000 ) ) ;
#27 = VERTEX_POINT ( 'NONE', #382 ) ;
#28 = PERSON_AND_ORGANIZATION ( #166, #383 ) ;
#29 = VERTEX_POINT ( 'NONE', #105 ) ;
#30 = SHAPE_DEFINITION_REPRESENTATION ( #33, #327 ) ;
#31 = EDGE_LOOP ( 'NONE', ( #208, #63, #366, #313 ) ) ;
#32 = CARTESIAN_POINT ( 'NONE',  ( 0.000000000000000000, 0.000000000000000000, 110.0000000000000000 ) ) ;
#33 = PRODUCT_DEFINITION_SHAPE ( 'NONE', 'NONE',  #112 ) ;
#34 = EDGE_LOOP ( 'NONE', ( #12, #367 ) ) ;
#35 = EDGE_CURVE ( 'NONE', #114, #92, #221, .T. ) ;
#36 = AXIS2_PLACEMENT_3D ( 'NONE', #311, #153, #211 ) ;
#37 = PLANE ( 'NONE',  #87 ) ;
#38 = AXIS2_PLACEMENT_3D ( 'NONE', #280, #184, #71 ) ;
#39 = FACE_OUTER_BOUND ( 'NONE', #122, .T. ) ;
#40 = EDGE_CURVE ( 'NONE', #268, #172, #264, .T. ) ;
#41 = FACE_OUTER_BOUND ( 'NONE', #69, .T. ) ;
#42 = ORIENTED_EDGE ( 'NONE', *, *, #361, .F. ) ;
#43 = DIRECTION ( 'NONE',  ( -1.000000000000000000, 0.000000000000000000, 0.000000000000000000 ) ) ;
#44 = VECTOR ( 'NONE', #1, 1000.000000000000000 ) ;
#45 = DIRECTION ( 'NONE',  ( 1.000000000000000000, 0.000000000000000000, 0.000000000000000000 ) ) ;
#46 = FACE_BOUND ( 'NONE', #177, .T. ) ;
#47 = ORIENTED_EDGE ( 'NONE', *, *, #35, .T. ) ;
#48 = DIRECTION ( 'NONE',  ( 0.000000000000000000, 0.000000000000000000, -1.000000000000000000 ) ) ;
#49 = AXIS2_PLACEMENT_3D ( 'NONE', #110, #320, #324 ) ;
#50 = CARTESIAN_POINT ( 'NONE',  ( 0.000000000000000000, 0.000000000000000000, 100.0000000000000000 ) ) ;
#51 = EDGE_CURVE ( 'NONE', #92, #29, #197, .T. ) ;
#52 = CARTESIAN_POINT ( 'NONE',  ( -3.400000000000000355, 0.000000000000000000, 102.0000000000000142 ) ) ;
#53 = AXIS2_PLACEMENT_3D ( 'NONE', #312, #316, #45 ) ;
#54 = CC_DESIGN_SECURITY_CLASSIFICATION ( #165, ( #134 ) ) ;
#55 = CALENDAR_DATE ( 2022, 14, 12 ) ;
#56 = ADVANCED_FACE ( 'NONE', ( #88 ), #171, .T. ) ;
#57 = COORDINATED_UNIVERSAL_TIME_OFFSET ( 1, 0, .AHEAD. ) ;
#58 = ORIENTED_EDGE ( 'NONE', *, *, #259, .T. ) ;
#59 = CYLINDRICAL_SURFACE ( 'NONE', #279, 4.000000000000000000 ) ;
#60 = DATE_TIME_ROLE ( 'creation_date' ) ;
#61 = EDGE_LOOP ( 'NONE', ( #297, #336 ) ) ;
#62 = DATE_AND_TIME ( #55, #309 ) ;
#63 = ORIENTED_EDGE ( 'NONE', *, *, #351, .F. ) ;
#64 = FACE_BOUND ( 'NONE', #302, .T. ) ;
#65 = COORDINATED_UNIVERSAL_TIME_OFFSET ( 1, 0, .AHEAD. ) ;
#66 = CC_DESIGN_DATE_AND_TIME_ASSIGNMENT ( #265, #10, ( #165 ) ) ;
#67 = EDGE_LOOP ( 'NONE', ( #238, #225, #342, #159 ) ) ;
#68 = DIRECTION ( 'NONE',  ( -1.000000000000000000, 0.000000000000000000, 0.000000000000000000 ) ) ;
#69 = EDGE_LOOP ( 'NONE', ( #338, #209, #42, #346 ) ) ;
#70 = FACE_OUTER_BOUND ( 'NONE', #244, .T. ) ;
#71 = DIRECTION ( 'NONE',  ( 1.000000000000000000, 0.000000000000000000, 0.000000000000000000 ) ) ;
#72 = EDGE_CURVE ( 'NONE', #92, #114, #113, .T. ) ;
#73 = DIRECTION ( 'NONE',  ( 1.000000000000000000, 0.000000000000000000, 0.000000000000000000 ) ) ;
#74 = DIRECTION ( 'NONE',  ( -0.7071067811865463515, 0.000000000000000000, -0.7071067811865487940 ) ) ;
#75 = CARTESIAN_POINT ( 'NONE',  ( -4.000000000000000000, 4.898587196589412829E-16, 102.0000000000000142 ) ) ;
#76 = DIRECTION ( 'NONE',  ( -0.000000000000000000, -0.000000000000000000, -1.000000000000000000 ) ) ;
#77 = ORIENTED_EDGE ( 'NONE', *, *, #180, .F. ) ;
#78 = PLANE ( 'NONE',  #220 ) ;
#79 = CARTESIAN_POINT ( 'NONE',  ( -3.400000000000000355, 0.000000000000000000, 0.000000000000000000 ) ) ;
#80 = DIRECTION ( 'NONE',  ( -0.000000000000000000, -0.000000000000000000, -1.000000000000000000 ) ) ;
#81 = LINE ( 'NONE', #2, #306 ) ;
#82 = AXIS2_PLACEMENT_3D ( 'NONE', #377, #253, #68 ) ;
#83 = CARTESIAN_POINT ( 'NONE',  ( 2.999999999999988898, 3.673940397442045570E-16, 110.0000000000000000 ) ) ;
#84 = APPROVAL_ROLE ( '' ) ;
#85 = VECTOR ( 'NONE', #345, 1000.000000000000000 ) ;
#86 = EDGE_CURVE ( 'NONE', #94, #331, #261, .T. ) ;
#87 = AXIS2_PLACEMENT_3D ( 'NONE', #142, #337, #245 ) ;
#88 = FACE_OUTER_BOUND ( 'NONE', #143, .T. ) ;
#89 = CALENDAR_DATE ( 2022, 14, 12 ) ;
#90 = DATE_AND_TIME ( #174, #189 ) ;
#91 = AXIS2_PLACEMENT_3D ( 'NONE', #126, #129, #256 ) ;
#92 = VERTEX_POINT ( 'NONE', #232 ) ;
#93 = APPROVAL ( #205, 'NEURÈENÝ' ) ;
#94 = VERTEX_POINT ( 'NONE', #325 ) ;
#95 = ORIENTED_EDGE ( 'NONE', *, *, #339, .F. ) ;
#96 = DIRECTION ( 'NONE',  ( -1.000000000000000000, 0.000000000000000000, 0.000000000000000000 ) ) ;
#97 = CYLINDRICAL_SURFACE ( 'NONE', #381, 3.400000000000000355 ) ;
#98 = ORIENTED_EDGE ( 'NONE', *, *, #292, .T. ) ;
#99 = CIRCLE ( 'NONE', #357, 4.000000000000000000 ) ;
#100 = LINE ( 'NONE', #215, #85 ) ;
#101 = CYLINDRICAL_SURFACE ( 'NONE', #164, 6.000000000000005329 ) ;
#102 = CARTESIAN_POINT ( 'NONE',  ( -2.999999999999988898, 0.000000000000000000, 110.0000000000000000 ) ) ;
#103 = CARTESIAN_POINT ( 'NONE',  ( -4.000000000000000000, 4.898587196589412829E-16, 108.9999999999999858 ) ) ;
#104 = CIRCLE ( 'NONE', #91, 3.400000000000000355 ) ;
#105 = CARTESIAN_POINT ( 'NONE',  ( 6.000000000000005329, 7.347880794884125653E-16, 0.000000000000000000 ) ) ;
#106 = CARTESIAN_POINT ( 'NONE',  ( 0.000000000000000000, 0.000000000000000000, 0.000000000000000000 ) ) ;
#107 =( LENGTH_UNIT ( ) NAMED_UNIT ( * ) SI_UNIT ( .MILLI., .METRE. ) );
#108 = CARTESIAN_POINT ( 'NONE',  ( 6.000000000000005329, 7.347880794884125653E-16, 110.0000000000000000 ) ) ;
#109 = CC_DESIGN_APPROVAL ( #93, ( #112 ) ) ;
#110 = CARTESIAN_POINT ( 'NONE',  ( 0.000000000000000000, 0.000000000000000000, 102.0000000000000142 ) ) ;
#111 = DIRECTION ( 'NONE',  ( -1.000000000000000000, 0.000000000000000000, 0.000000000000000000 ) ) ;
#112 = PRODUCT_DEFINITION ( 'NEZNÁMÝ', '', #134, #13 ) ;
#113 = CIRCLE ( 'NONE', #255, 6.000000000000005329 ) ;
#114 = VERTEX_POINT ( 'NONE', #115 ) ;
#115 = CARTESIAN_POINT ( 'NONE',  ( -6.000000000000005329, 0.000000000000000000, 100.0000000000000000 ) ) ;
#116 = PERSON_AND_ORGANIZATION ( #166, #383 ) ;
#117 = VERTEX_POINT ( 'NONE', #52 ) ;
#118 = PERSON_AND_ORGANIZATION_ROLE ( 'design_owner' ) ;
#119 = ADVANCED_FACE ( 'NONE', ( #237 ), #355, .T. ) ;
#120 = PRODUCT ( 'A_0813-100-12Z', 'A_0813-100-12Z', '', ( #291 ) ) ;
#121 = CIRCLE ( 'NONE', #168, 2.999999999999988898 ) ;
#122 = EDGE_LOOP ( 'NONE', ( #19, #203 ) ) ;
#123 = ORIENTED_EDGE ( 'NONE', *, *, #334, .T. ) ;
#124 = APPROVAL ( #356, 'NEURÈENÝ' ) ;
#125 = ORIENTED_EDGE ( 'NONE', *, *, #35, .F. ) ;
#126 = CARTESIAN_POINT ( 'NONE',  ( 0.000000000000000000, 0.000000000000000000, 102.0000000000000142 ) ) ;
#127 = FACE_OUTER_BOUND ( 'NONE', #67, .T. ) ;
#128 = ADVANCED_FACE ( 'NONE', ( #371 ), #37, .F. ) ;
#129 = DIRECTION ( 'NONE',  ( -0.000000000000000000, -0.000000000000000000, -1.000000000000000000 ) ) ;
#130 = DIRECTION ( 'NONE',  ( -0.000000000000000000, -0.000000000000000000, -1.000000000000000000 ) ) ;
#131 = FACE_OUTER_BOUND ( 'NONE', #370, .T. ) ;
#132 = AXIS2_PLACEMENT_3D ( 'NONE', #281, #48, #23 ) ;
#133 = AXIS2_PLACEMENT_3D ( 'NONE', #201, #26, #111 ) ;
#134 = PRODUCT_DEFINITION_FORMATION_WITH_SPECIFIED_SOURCE ( 'LIBOVOLNÝ', '', #120, .NOT_KNOWN. ) ;
#135 = ADVANCED_FACE ( 'NONE', ( #246 ), #293, .T. ) ;
#136 = DIRECTION ( 'NONE',  ( -1.000000000000000000, 0.000000000000000000, 0.000000000000000000 ) ) ;
#137 = DIRECTION ( 'NONE',  ( 0.000000000000000000, 0.000000000000000000, 1.000000000000000000 ) ) ;
#138 = APPLICATION_PROTOCOL_DEFINITION ( 'international standard', 'config_control_design', 1994, #20 ) ;
#139 = AXIS2_PLACEMENT_3D ( 'NONE', #106, #318, #188 ) ;
#140 = ORIENTED_EDGE ( 'NONE', *, *, #169, .F. ) ;
#141 = ORIENTED_EDGE ( 'NONE', *, *, #262, .F. ) ;
#142 = CARTESIAN_POINT ( 'NONE',  ( 0.000000000000000000, 0.000000000000000000, 0.000000000000000000 ) ) ;
#143 = EDGE_LOOP ( 'NONE', ( #242, #333, #183, #360 ) ) ;
#144 = COORDINATED_UNIVERSAL_TIME_OFFSET ( 1, 0, .AHEAD. ) ;
#145 = CIRCLE ( 'NONE', #315, 3.400000000000000355 ) ;
#146 = AXIS2_PLACEMENT_3D ( 'NONE', #216, #152, #17 ) ;
#147 = ORIENTED_EDGE ( 'NONE', *, *, #163, .F. ) ;
#148 = ADVANCED_FACE ( 'NONE', ( #368, #64 ), #178, .T. ) ;
#149 = DIRECTION ( 'NONE',  ( -0.000000000000000000, 0.000000000000000000, -1.000000000000000000 ) ) ;
#150 = ORIENTED_EDGE ( 'NONE', *, *, #224, .T. ) ;
#151 = DIRECTION ( 'NONE',  ( -1.000000000000000000, 0.000000000000000000, 0.000000000000000000 ) ) ;
#152 = DIRECTION ( 'NONE',  ( -0.000000000000000000, -0.000000000000000000, -1.000000000000000000 ) ) ;
#153 = DIRECTION ( 'NONE',  ( 0.000000000000000000, 0.000000000000000000, 1.000000000000000000 ) ) ;
#154 = CARTESIAN_POINT ( 'NONE',  ( -3.399999999999999911, 0.000000000000000000, 100.0000000000000000 ) ) ;
#155 = VECTOR ( 'NONE', #76, 1000.000000000000000 ) ;
#156 = LINE ( 'NONE', #349, #187 ) ;
#157 = DIRECTION ( 'NONE',  ( -1.000000000000000000, 0.000000000000000000, 0.000000000000000000 ) ) ;
#158 = ADVANCED_FACE ( 'NONE', ( #210 ), #59, .T. ) ;
#159 = ORIENTED_EDGE ( 'NONE', *, *, #259, .F. ) ;
#160 = CARTESIAN_POINT ( 'NONE',  ( 3.400000000000000355, 4.163799117101001052E-16, 0.000000000000000000 ) ) ;
#161 = DIRECTION ( 'NONE',  ( -0.000000000000000000, -0.000000000000000000, -1.000000000000000000 ) ) ;
#162 = DIRECTION ( 'NONE',  ( -1.000000000000000000, 0.000000000000000000, 0.000000000000000000 ) ) ;
#163 = EDGE_CURVE ( 'NONE', #117, #27, #104, .T. ) ;
#164 = AXIS2_PLACEMENT_3D ( 'NONE', #286, #130, #254 ) ;
#165 = SECURITY_CLASSIFICATION ( '', '', #295 ) ;
#166 = PERSON ( 'NEURÈENÝ', 'NEURÈENÝ', 'NEURÈENÝ', ('NEURÈENÝ'), ('NEURÈENÝ'), ('NEURÈENÝ') ) ;
#167 = CARTESIAN_POINT ( 'NONE',  ( 0.000000000000000000, 0.000000000000000000, 110.0000000000000000 ) ) ;
#168 = AXIS2_PLACEMENT_3D ( 'NONE', #278, #222, #73 ) ;
#169 = EDGE_CURVE ( 'NONE', #308, #94, #364, .T. ) ;
#170 = PERSON_AND_ORGANIZATION ( #166, #383 ) ;
#171 = CYLINDRICAL_SURFACE ( 'NONE', #133, 3.400000000000000355 ) ;
#172 = VERTEX_POINT ( 'NONE', #380 ) ;
#173 = CARTESIAN_POINT ( 'NONE',  ( 0.000000000000000000, 0.000000000000000000, 100.0000000000000000 ) ) ;
#174 = CALENDAR_DATE ( 2022, 14, 12 ) ;
#175 = VERTEX_POINT ( 'NONE', #103 ) ;
#176 = AXIS2_PLACEMENT_3D ( 'NONE', #231, #4, #162 ) ;
#177 = EDGE_LOOP ( 'NONE', ( #213, #98 ) ) ;
#178 = PLANE ( 'NONE',  #341 ) ;
#179 = COORDINATED_UNIVERSAL_TIME_OFFSET ( 1, 0, .AHEAD. ) ;
#180 = EDGE_CURVE ( 'NONE', #94, #308, #121, .T. ) ;
#181 = ORIENTED_EDGE ( 'NONE', *, *, #224, .F. ) ;
#182 = CARTESIAN_POINT ( 'NONE',  ( 0.000000000000000000, 0.000000000000000000, 0.000000000000000000 ) ) ;
#183 = ORIENTED_EDGE ( 'NONE', *, *, #384, .T. ) ;
#184 = DIRECTION ( 'NONE',  ( 0.000000000000000000, 0.000000000000000000, 1.000000000000000000 ) ) ;
#185 = CARTESIAN_POINT ( 'NONE',  ( 0.000000000000000000, 0.000000000000000000, 100.0000000000000000 ) ) ;
#186 = EDGE_CURVE ( 'NONE', #27, #375, #348, .T. ) ;
#187 = VECTOR ( 'NONE', #80, 1000.000000000000000 ) ;
#188 = DIRECTION ( 'NONE',  ( 1.000000000000000000, 0.000000000000000000, 0.000000000000000000 ) ) ;
#189 = LOCAL_TIME ( 10, 15, 51.00000000000000000, #144 ) ;
#190 = DIRECTION ( 'NONE',  ( -0.000000000000000000, -0.000000000000000000, 1.000000000000000000 ) ) ;
#191 = CC_DESIGN_DATE_AND_TIME_ASSIGNMENT ( #233, #60, ( #112 ) ) ;
#192 = DIRECTION ( 'NONE',  ( 1.000000000000000000, 0.000000000000000000, 0.000000000000000000 ) ) ;
#193 = DIRECTION ( 'NONE',  ( 1.000000000000000000, 0.000000000000000000, 0.000000000000000000 ) ) ;
#194 = LOCAL_TIME ( 10, 15, 51.00000000000000000, #365 ) ;
#195 = DIRECTION ( 'NONE',  ( 0.7071067811865463515, 8.659560562354918067E-17, -0.7071067811865487940 ) ) ;
#196 = CC_DESIGN_PERSON_AND_ORGANIZATION_ASSIGNMENT ( #25, #359, ( #165 ) ) ;
#197 = LINE ( 'NONE', #108, #321 ) ;
#198 = DIRECTION ( 'NONE',  ( -0.000000000000000000, -0.000000000000000000, -1.000000000000000000 ) ) ;
#199 = AXIS2_PLACEMENT_3D ( 'NONE', #275, #14, #151 ) ;
#200 = PERSON_AND_ORGANIZATION ( #166, #383 ) ;
#201 = CARTESIAN_POINT ( 'NONE',  ( 0.000000000000000000, 0.000000000000000000, 0.000000000000000000 ) ) ;
#202 = PERSON_AND_ORGANIZATION ( #166, #383 ) ;
#203 = ORIENTED_EDGE ( 'NONE', *, *, #180, .T. ) ;
#204 = EDGE_CURVE ( 'NONE', #29, #319, #9, .T. ) ;
#205 = APPROVAL_STATUS ( 'not_yet_approved' ) ;
#206 = CIRCLE ( 'NONE', #82, 3.399999999999999911 ) ;
#207 = EDGE_LOOP ( 'NONE', ( #347, #363, #6, #95 ) ) ;
#208 = ORIENTED_EDGE ( 'NONE', *, *, #322, .F. ) ;
#209 = ORIENTED_EDGE ( 'NONE', *, *, #186, .T. ) ;
#210 = FACE_OUTER_BOUND ( 'NONE', #207, .T. ) ;
#211 = DIRECTION ( 'NONE',  ( 1.000000000000000000, 0.000000000000000000, -0.000000000000000000 ) ) ;
#212 = CIRCLE ( 'NONE', #49, 4.000000000000000000 ) ;
#213 = ORIENTED_EDGE ( 'NONE', *, *, #361, .T. ) ;
#214 =( GEOMETRIC_REPRESENTATION_CONTEXT ( 3 ) GLOBAL_UNCERTAINTY_ASSIGNED_CONTEXT ( ( #305 ) ) GLOBAL_UNIT_ASSIGNED_CONTEXT ( ( #107, #326, #385 ) ) REPRESENTATION_CONTEXT ( 'NONE', 'WORKASPACE' ) );
#215 = CARTESIAN_POINT ( 'NONE',  ( -4.000000000000000000, 4.898587196589412829E-16, 100.0000000000000000 ) ) ;
#216 = CARTESIAN_POINT ( 'NONE',  ( 0.000000000000000000, 0.000000000000000000, 102.0000000000000142 ) ) ;
#217 = ADVANCED_FACE ( 'NONE', ( #21 ), #344, .T. ) ;
#218 = DIRECTION ( 'NONE',  ( 0.000000000000000000, 0.000000000000000000, 1.000000000000000000 ) ) ;
#219 = CARTESIAN_POINT ( 'NONE',  ( 4.000000000000000000, 0.000000000000000000, 108.9999999999999858 ) ) ;
#220 = AXIS2_PLACEMENT_3D ( 'NONE', #185, #314, #290 ) ;
#221 = CIRCLE ( 'NONE', #38, 6.000000000000005329 ) ;
#222 = DIRECTION ( 'NONE',  ( 0.000000000000000000, 0.000000000000000000, 1.000000000000000000 ) ) ;
#223 = AXIS2_PLACEMENT_3D ( 'NONE', #227, #350, #193 ) ;
#224 = EDGE_CURVE ( 'NONE', #308, #175, #376, .T. ) ;
#225 = ORIENTED_EDGE ( 'NONE', *, *, #51, .T. ) ;
#226 = DIRECTION ( 'NONE',  ( 1.000000000000000000, 0.000000000000000000, 0.000000000000000000 ) ) ;
#227 = CARTESIAN_POINT ( 'NONE',  ( 0.000000000000000000, 0.000000000000000000, 0.000000000000000000 ) ) ;
#228 = DIRECTION ( 'NONE',  ( 1.000000000000000000, 0.000000000000000000, 0.000000000000000000 ) ) ;
#229 = LOCAL_TIME ( 10, 15, 51.00000000000000000, #179 ) ;
#230 = EDGE_CURVE ( 'NONE', #331, #175, #99, .T. ) ;
#231 = CARTESIAN_POINT ( 'NONE',  ( 0.000000000000000000, 0.000000000000000000, 100.0000000000000000 ) ) ;
#232 = CARTESIAN_POINT ( 'NONE',  ( 6.000000000000005329, 7.347880794884125653E-16, 100.0000000000000000 ) ) ;
#233 = DATE_AND_TIME ( #89, #229 ) ;
#234 = CIRCLE ( 'NONE', #132, 4.000000000000000000 ) ;
#235 = PERSON_AND_ORGANIZATION ( #166, #383 ) ;
#236 = ORIENTED_EDGE ( 'NONE', *, *, #72, .T. ) ;
#237 = FACE_OUTER_BOUND ( 'NONE', #272, .T. ) ;
#238 = ORIENTED_EDGE ( 'NONE', *, *, #72, .F. ) ;
#239 = APPROVAL_STATUS ( 'not_yet_approved' ) ;
#240 = ORIENTED_EDGE ( 'NONE', *, *, #86, .F. ) ;
#241 = DIRECTION ( 'NONE',  ( 0.000000000000000000, 0.000000000000000000, -1.000000000000000000 ) ) ;
#242 = ORIENTED_EDGE ( 'NONE', *, *, #186, .F. ) ;
#243 = CC_DESIGN_PERSON_AND_ORGANIZATION_ASSIGNMENT ( #303, #267, ( #134 ) ) ;
#244 = EDGE_LOOP ( 'NONE', ( #240, #140, #150, #249 ) ) ;
#245 = DIRECTION ( 'NONE',  ( 1.000000000000000000, 0.000000000000000000, -0.000000000000000000 ) ) ;
#246 = FACE_OUTER_BOUND ( 'NONE', #276, .T. ) ;
#247 = ADVANCED_FACE ( 'NONE', ( #131, #46 ), #78, .T. ) ;
#248 = AXIS2_PLACEMENT_3D ( 'NONE', #167, #198, #136 ) ;
#249 = ORIENTED_EDGE ( 'NONE', *, *, #230, .F. ) ;
#250 = DIRECTION ( 'NONE',  ( 0.000000000000000000, 0.000000000000000000, 1.000000000000000000 ) ) ;
#251 = DIRECTION ( 'NONE',  ( 0.000000000000000000, 0.000000000000000000, -1.000000000000000000 ) ) ;
#252 = EDGE_CURVE ( 'NONE', #27, #117, #145, .T. ) ;
#253 = DIRECTION ( 'NONE',  ( -0.000000000000000000, -0.000000000000000000, -1.000000000000000000 ) ) ;
#254 = DIRECTION ( 'NONE',  ( -1.000000000000000000, 0.000000000000000000, 0.000000000000000000 ) ) ;
#255 = AXIS2_PLACEMENT_3D ( 'NONE', #50, #137, #228 ) ;
#256 = DIRECTION ( 'NONE',  ( -1.000000000000000000, 0.000000000000000000, 0.000000000000000000 ) ) ;
#257 = CARTESIAN_POINT ( 'NONE',  ( 3.399999999999999911, 4.163799117101000559E-16, 100.0000000000000000 ) ) ;
#258 = DIRECTION ( 'NONE',  ( 1.000000000000000000, 0.000000000000000000, 0.000000000000000000 ) ) ;
#259 = EDGE_CURVE ( 'NONE', #114, #319, #156, .T. ) ;
#260 = DIRECTION ( 'NONE',  ( -0.000000000000000000, -0.000000000000000000, 1.000000000000000000 ) ) ;
#261 = LINE ( 'NONE', #83, #373 ) ;
#262 = EDGE_CURVE ( 'NONE', #175, #331, #234, .T. ) ;
#263 = CIRCLE ( 'NONE', #176, 3.399999999999999911 ) ;
#264 = CIRCLE ( 'NONE', #146, 4.000000000000000000 ) ;
#265 = DATE_AND_TIME ( #301, #194 ) ;
#266 = APPROVAL_ROLE ( '' ) ;
#267 = PERSON_AND_ORGANIZATION_ROLE ( 'creator' ) ;
#268 = VERTEX_POINT ( 'NONE', #75 ) ;
#269 = CC_DESIGN_PERSON_AND_ORGANIZATION_ASSIGNMENT ( #116, #299, ( #134 ) ) ;
#270 = CARTESIAN_POINT ( 'NONE',  ( 3.400000000000000355, 0.000000000000000000, 102.0000000000000142 ) ) ;
#271 = CLOSED_SHELL ( 'NONE', ( #135, #158, #294, #16, #119, #128, #247, #56, #148, #310, #217, #277 ) ) ;
#272 = EDGE_LOOP ( 'NONE', ( #340, #125, #58, #123 ) ) ;
#273 = CC_DESIGN_APPROVAL ( #124, ( #134 ) ) ;
#274 = DIRECTION ( 'NONE',  ( -1.000000000000000000, 0.000000000000000000, 0.000000000000000000 ) ) ;
#275 = CARTESIAN_POINT ( 'NONE',  ( 0.000000000000000000, 0.000000000000000000, 110.0000000000000000 ) ) ;
#276 = EDGE_LOOP ( 'NONE', ( #77, #304, #141, #181 ) ) ;
#277 = ADVANCED_FACE ( 'NONE', ( #70 ), #289, .T. ) ;
#278 = CARTESIAN_POINT ( 'NONE',  ( 0.000000000000000000, 0.000000000000000000, 110.0000000000000000 ) ) ;
#279 = AXIS2_PLACEMENT_3D ( 'NONE', #173, #190, #192 ) ;
#280 = CARTESIAN_POINT ( 'NONE',  ( 0.000000000000000000, 0.000000000000000000, 100.0000000000000000 ) ) ;
#281 = CARTESIAN_POINT ( 'NONE',  ( 0.000000000000000000, 0.000000000000000000, 108.9999999999999858 ) ) ;
#282 = CC_DESIGN_APPROVAL ( #317, ( #165 ) ) ;
#283 = ORIENTED_EDGE ( 'NONE', *, *, #252, .F. ) ;
#284 = CARTESIAN_POINT ( 'NONE',  ( 0.000000000000000000, 0.000000000000000000, 102.0000000000000142 ) ) ;
#285 = MANIFOLD_SOLID_BREP ( 'Zkosení1', #271 ) ;
#286 = CARTESIAN_POINT ( 'NONE',  ( 0.000000000000000000, 0.000000000000000000, 110.0000000000000000 ) ) ;
#287 = PRODUCT_RELATED_PRODUCT_CATEGORY ( 'detail', '', ( #120 ) ) ;
#288 = CARTESIAN_POINT ( 'NONE',  ( 0.000000000000000000, 0.000000000000000000, 110.0000000000000000 ) ) ;
#289 = CONICAL_SURFACE ( 'NONE', #199, 2.999999999999988898, 0.7853981633974466137 ) ;
#290 = DIRECTION ( 'NONE',  ( 1.000000000000000000, 0.000000000000000000, -0.000000000000000000 ) ) ;
#291 = MECHANICAL_CONTEXT ( 'NONE', #3, 'mechanical' ) ;
#292 = EDGE_CURVE ( 'NONE', #375, #8, #206, .T. ) ;
#293 = CONICAL_SURFACE ( 'NONE', #353, 2.999999999999988898, 0.7853981633974466137 ) ;
#294 = ADVANCED_FACE ( 'NONE', ( #41 ), #97, .T. ) ;
#295 = SECURITY_CLASSIFICATION_LEVEL ( 'unclassified' ) ;
#296 = APPROVAL_DATE_TIME ( #362, #317 ) ;
#297 = ORIENTED_EDGE ( 'NONE', *, *, #334, .F. ) ;
#298 = AXIS2_PLACEMENT_3D ( 'NONE', #18, #250, #258 ) ;
#299 = PERSON_AND_ORGANIZATION_ROLE ( 'design_supplier' ) ;
#300 = LOCAL_TIME ( 10, 15, 51.00000000000000000, #57 ) ;
#301 = CALENDAR_DATE ( 2022, 14, 12 ) ;
#302 = EDGE_LOOP ( 'NONE', ( #147, #283 ) ) ;
#303 = PERSON_AND_ORGANIZATION ( #166, #383 ) ;
#304 = ORIENTED_EDGE ( 'NONE', *, *, #86, .T. ) ;
#305 = UNCERTAINTY_MEASURE_WITH_UNIT (LENGTH_MEASURE( 1.000000000000000082E-05 ), #107, 'distance_accuracy_value', 'NONE');
#306 = VECTOR ( 'NONE', #260, 1000.000000000000000 ) ;
#307 = DIRECTION ( 'NONE',  ( -0.000000000000000000, -0.000000000000000000, -1.000000000000000000 ) ) ;
#308 = VERTEX_POINT ( 'NONE', #374 ) ;
#309 = LOCAL_TIME ( 10, 15, 51.00000000000000000, #65 ) ;
#310 = ADVANCED_FACE ( 'NONE', ( #39 ), #369, .T. ) ;
#311 = CARTESIAN_POINT ( 'NONE',  ( 0.000000000000000000, 0.000000000000000000, 110.0000000000000000 ) ) ;
#312 = CARTESIAN_POINT ( 'NONE',  ( 0.000000000000000000, 0.000000000000000000, 100.0000000000000000 ) ) ;
#313 = ORIENTED_EDGE ( 'NONE', *, *, #230, .T. ) ;
#314 = DIRECTION ( 'NONE',  ( 0.000000000000000000, 0.000000000000000000, 1.000000000000000000 ) ) ;
#315 = AXIS2_PLACEMENT_3D ( 'NONE', #284, #161, #43 ) ;
#316 = DIRECTION ( 'NONE',  ( -0.000000000000000000, -0.000000000000000000, 1.000000000000000000 ) ) ;
#317 = APPROVAL ( #239, 'NEURÈENÝ' ) ;
#318 = DIRECTION ( 'NONE',  ( 0.000000000000000000, 0.000000000000000000, 1.000000000000000000 ) ) ;
#319 = VERTEX_POINT ( 'NONE', #15 ) ;
#320 = DIRECTION ( 'NONE',  ( -0.000000000000000000, -0.000000000000000000, -1.000000000000000000 ) ) ;
#321 = VECTOR ( 'NONE', #358, 1000.000000000000000 ) ;
#322 = EDGE_CURVE ( 'NONE', #268, #175, #100, .T. ) ;
#323 = APPROVAL_PERSON_ORGANIZATION ( #200, #93, #266 ) ;
#324 = DIRECTION ( 'NONE',  ( -1.000000000000000000, 0.000000000000000000, 0.000000000000000000 ) ) ;
#325 = CARTESIAN_POINT ( 'NONE',  ( 2.999999999999988898, 4.286263797015729199E-16, 110.0000000000000000 ) ) ;
#326 =( NAMED_UNIT ( * ) PLANE_ANGLE_UNIT ( ) SI_UNIT ( $, .RADIAN. ) );
#327 = ADVANCED_BREP_SHAPE_REPRESENTATION ( 'A_0813-100-12Z', ( #285, #223 ), #214 ) ;
#328 = VECTOR ( 'NONE', #74, 1000.000000000000000 ) ;
#329 = CALENDAR_DATE ( 2022, 14, 12 ) ;
#330 = PERSON_AND_ORGANIZATION_ROLE ( 'creator' ) ;
#331 = VERTEX_POINT ( 'NONE', #219 ) ;
#332 = APPROVAL_DATE_TIME ( #62, #93 ) ;
#333 = ORIENTED_EDGE ( 'NONE', *, *, #252, .T. ) ;
#334 = EDGE_CURVE ( 'NONE', #319, #29, #372, .T. ) ;
#335 = APPROVAL_ROLE ( '' ) ;
#336 = ORIENTED_EDGE ( 'NONE', *, *, #204, .F. ) ;
#337 = DIRECTION ( 'NONE',  ( 0.000000000000000000, 0.000000000000000000, 1.000000000000000000 ) ) ;
#338 = ORIENTED_EDGE ( 'NONE', *, *, #163, .T. ) ;
#339 = EDGE_CURVE ( 'NONE', #172, #331, #81, .T. ) ;
#340 = ORIENTED_EDGE ( 'NONE', *, *, #51, .F. ) ;
#341 = AXIS2_PLACEMENT_3D ( 'NONE', #270, #149, #96 ) ;
#342 = ORIENTED_EDGE ( 'NONE', *, *, #204, .T. ) ;
#343 = APPROVAL_PERSON_ORGANIZATION ( #235, #124, #335 ) ;
#344 = CYLINDRICAL_SURFACE ( 'NONE', #53, 4.000000000000000000 ) ;
#345 = DIRECTION ( 'NONE',  ( -0.000000000000000000, -0.000000000000000000, 1.000000000000000000 ) ) ;
#346 = ORIENTED_EDGE ( 'NONE', *, *, #384, .F. ) ;
#347 = ORIENTED_EDGE ( 'NONE', *, *, #40, .F. ) ;
#348 = LINE ( 'NONE', #160, #155 ) ;
#349 = CARTESIAN_POINT ( 'NONE',  ( -6.000000000000005329, 0.000000000000000000, 110.0000000000000000 ) ) ;
#350 = DIRECTION ( 'NONE',  ( 0.000000000000000000, 0.000000000000000000, 1.000000000000000000 ) ) ;
#351 = EDGE_CURVE ( 'NONE', #172, #268, #212, .T. ) ;
#352 = APPLICATION_PROTOCOL_DEFINITION ( 'international standard', 'config_control_design', 1994, #3 ) ;
#353 = AXIS2_PLACEMENT_3D ( 'NONE', #32, #241, #274 ) ;
#354 = LINE ( 'NONE', #79, #44 ) ;
#355 = CYLINDRICAL_SURFACE ( 'NONE', #248, 6.000000000000005329 ) ;
#356 = APPROVAL_STATUS ( 'not_yet_approved' ) ;
#357 = AXIS2_PLACEMENT_3D ( 'NONE', #22, #251, #226 ) ;
#358 = DIRECTION ( 'NONE',  ( -0.000000000000000000, -0.000000000000000000, -1.000000000000000000 ) ) ;
#359 = PERSON_AND_ORGANIZATION_ROLE ( 'classification_officer' ) ;
#360 = ORIENTED_EDGE ( 'NONE', *, *, #292, .F. ) ;
#361 = EDGE_CURVE ( 'NONE', #8, #375, #263, .T. ) ;
#362 = DATE_AND_TIME ( #329, #300 ) ;
#363 = ORIENTED_EDGE ( 'NONE', *, *, #322, .T. ) ;
#364 = CIRCLE ( 'NONE', #5, 2.999999999999988898 ) ;
#365 = COORDINATED_UNIVERSAL_TIME_OFFSET ( 1, 0, .AHEAD. ) ;
#366 = ORIENTED_EDGE ( 'NONE', *, *, #339, .T. ) ;
#367 = ORIENTED_EDGE ( 'NONE', *, *, #40, .T. ) ;
#368 = FACE_OUTER_BOUND ( 'NONE', #34, .T. ) ;
#369 = PLANE ( 'NONE',  #36 ) ;
#370 = EDGE_LOOP ( 'NONE', ( #47, #236 ) ) ;
#371 = FACE_OUTER_BOUND ( 'NONE', #61, .T. ) ;
#372 = CIRCLE ( 'NONE', #298, 6.000000000000005329 ) ;
#373 = VECTOR ( 'NONE', #195, 1000.000000000000000 ) ;
#374 = CARTESIAN_POINT ( 'NONE',  ( -2.999999999999988898, 0.000000000000000000, 110.0000000000000000 ) ) ;
#375 = VERTEX_POINT ( 'NONE', #257 ) ;
#376 = LINE ( 'NONE', #102, #328 ) ;
#377 = CARTESIAN_POINT ( 'NONE',  ( 0.000000000000000000, 0.000000000000000000, 100.0000000000000000 ) ) ;
#378 = CC_DESIGN_PERSON_AND_ORGANIZATION_ASSIGNMENT ( #202, #118, ( #120 ) ) ;
#379 = DIRECTION ( 'NONE',  ( 1.000000000000000000, 0.000000000000000000, 0.000000000000000000 ) ) ;
#380 = CARTESIAN_POINT ( 'NONE',  ( 4.000000000000000000, 0.000000000000000000, 102.0000000000000142 ) ) ;
#381 = AXIS2_PLACEMENT_3D ( 'NONE', #182, #307, #157 ) ;
#382 = CARTESIAN_POINT ( 'NONE',  ( 3.400000000000000355, 4.163799117101001052E-16, 102.0000000000000142 ) ) ;
#383 = ORGANIZATION ( 'NEURÈENÝ', 'NEURÈENÝ', '' ) ;
#384 = EDGE_CURVE ( 'NONE', #117, #8, #354, .T. ) ;
#385 =( NAMED_UNIT ( * ) SI_UNIT ( $, .STERADIAN. ) SOLID_ANGLE_UNIT ( ) );
ENDSEC;
END-ISO-10303-21;
