ISO-10303-21;
HEADER;
FILE_DESCRIPTION (( 'STEP AP203' ),
    '1' );
FILE_NAME ('A_0813-120-12Z.STEP',
    '2019-09-26T10:43:47',
    ( '' ),
    ( '' ),
    'SwSTEP 2.0',
    'SolidWorks 2019',
    '' );
FILE_SCHEMA (( 'CONFIG_CONTROL_DESIGN' ));
ENDSEC;

DATA;
#1 = ORIENTED_EDGE ( 'NONE', *, *, #88, .F. ) ;
#2 = ORIENTED_EDGE ( 'NONE', *, *, #262, .F. ) ;
#3 = DIRECTION ( 'NONE',  ( -0.0000000000000000000, -0.0000000000000000000, -1.000000000000000000 ) ) ;
#4 = CLOSED_SHELL ( 'NONE', ( #149, #139, #194, #344, #376, #342, #207, #49, #249, #309, #126, #105 ) ) ;
#5 = CARTESIAN_POINT ( 'NONE',  ( 0.0000000000000000000, 0.0000000000000000000, 130.0000000000000000 ) ) ;
#6 = EDGE_CURVE ( 'NONE', #43, #115, #320, .T. ) ;
#7 = ORIENTED_EDGE ( 'NONE', *, *, #339, .T. ) ;
#8 = DIRECTION ( 'NONE',  ( 0.0000000000000000000, 0.0000000000000000000, -1.000000000000000000 ) ) ;
#9 = ORIENTED_EDGE ( 'NONE', *, *, #222, .F. ) ;
#10 = CALENDAR_DATE ( 2019, 26, 9 ) ;
#11 = ORIENTED_EDGE ( 'NONE', *, *, #62, .T. ) ;
#12 = CARTESIAN_POINT ( 'NONE',  ( 0.0000000000000000000, 0.0000000000000000000, 120.0000000000000142 ) ) ;
#13 = AXIS2_PLACEMENT_3D ( 'NONE', #164, #335, #256 ) ;
#14 = DIRECTION ( 'NONE',  ( -0.0000000000000000000, -0.0000000000000000000, 1.000000000000000000 ) ) ;
#15 = APPROVAL ( #319, 'UNSPECIFIED' ) ;
#16 = CARTESIAN_POINT ( 'NONE',  ( -4.000000000000000000, 4.898587196589412829E-16, 129.0000000000000000 ) ) ;
#17 = DIRECTION ( 'NONE',  ( 0.0000000000000000000, 0.0000000000000000000, 1.000000000000000000 ) ) ;
#18 = PERSON_AND_ORGANIZATION ( #385, #83 ) ;
#19 = DIRECTION ( 'NONE',  ( -0.0000000000000000000, -0.0000000000000000000, -1.000000000000000000 ) ) ;
#20 = PLANE ( 'NONE',  #254 ) ;
#21 = DIRECTION ( 'NONE',  ( 0.0000000000000000000, 0.0000000000000000000, 1.000000000000000000 ) ) ;
#22 = EDGE_CURVE ( 'NONE', #39, #115, #351, .T. ) ;
#23 = PERSON_AND_ORGANIZATION ( #385, #83 ) ;
#24 = CARTESIAN_POINT ( 'NONE',  ( 0.0000000000000000000, 0.0000000000000000000, 129.0000000000000000 ) ) ;
#25 = AXIS2_PLACEMENT_3D ( 'NONE', #5, #8, #36 ) ;
#26 = LOCAL_TIME ( 12, 43, 47.00000000000000000, #219 ) ;
#27 = APPROVAL_ROLE ( '' ) ;
#28 = DIRECTION ( 'NONE',  ( -0.0000000000000000000, -0.0000000000000000000, -1.000000000000000000 ) ) ;
#29 = ORIENTED_EDGE ( 'NONE', *, *, #129, .F. ) ;
#30 = CARTESIAN_POINT ( 'NONE',  ( 0.0000000000000000000, 0.0000000000000000000, 122.0000000000000284 ) ) ;
#31 = CIRCLE ( 'NONE', #46, 6.000000000000005329 ) ;
#32 = APPROVAL_PERSON_ORGANIZATION ( #307, #99, #45 ) ;
#33 = ORIENTED_EDGE ( 'NONE', *, *, #268, .T. ) ;
#34 = DIRECTION ( 'NONE',  ( 1.000000000000000000, 0.0000000000000000000, 0.0000000000000000000 ) ) ;
#35 = ORIENTED_EDGE ( 'NONE', *, *, #291, .F. ) ;
#36 = DIRECTION ( 'NONE',  ( -1.000000000000000000, 0.0000000000000000000, 0.0000000000000000000 ) ) ;
#37 = ORIENTED_EDGE ( 'NONE', *, *, #51, .T. ) ;
#38 = CC_DESIGN_APPROVAL ( #99, ( #332 ) ) ;
#39 = VERTEX_POINT ( 'NONE', #296 ) ;
#40 = CARTESIAN_POINT ( 'NONE',  ( 6.000000000000005329, 7.347880794884125653E-16, 0.0000000000000000000 ) ) ;
#41 = CARTESIAN_POINT ( 'NONE',  ( -3.399999999999999911, 0.0000000000000000000, 120.0000000000000000 ) ) ;
#42 = MANIFOLD_SOLID_BREP ( 'Zkosení1', #4 ) ;
#43 = VERTEX_POINT ( 'NONE', #208 ) ;
#44 = DIRECTION ( 'NONE',  ( -0.0000000000000000000, -0.0000000000000000000, -1.000000000000000000 ) ) ;
#45 = APPROVAL_ROLE ( '' ) ;
#46 = AXIS2_PLACEMENT_3D ( 'NONE', #261, #64, #176 ) ;
#47 = FACE_OUTER_BOUND ( 'NONE', #213, .T. ) ;
#48 = APPROVAL_PERSON_ORGANIZATION ( #382, #196, #27 ) ;
#49 = ADVANCED_FACE ( 'NONE', ( #357 ), #90, .T. ) ;
#50 = CARTESIAN_POINT ( 'NONE',  ( 0.0000000000000000000, 0.0000000000000000000, 0.0000000000000000000 ) ) ;
#51 = EDGE_CURVE ( 'NONE', #96, #86, #106, .T. ) ;
#52 = DIRECTION ( 'NONE',  ( -0.0000000000000000000, 0.0000000000000000000, -1.000000000000000000 ) ) ;
#53 = EDGE_CURVE ( 'NONE', #217, #245, #384, .T. ) ;
#54 = CARTESIAN_POINT ( 'NONE',  ( -4.000000000000000000, 4.898587196589412829E-16, 122.0000000000000284 ) ) ;
#55 = CYLINDRICAL_SURFACE ( 'NONE', #118, 6.000000000000005329 ) ;
#56 = APPROVAL_ROLE ( '' ) ;
#57 = PERSON_AND_ORGANIZATION_ROLE ( 'design_owner' ) ;
#58 = ORIENTED_EDGE ( 'NONE', *, *, #268, .F. ) ;
#59 = VECTOR ( 'NONE', #253, 1000.000000000000000 ) ;
#60 = COORDINATED_UNIVERSAL_TIME_OFFSET ( 1, 0, .AHEAD. ) ;
#61 = EDGE_LOOP ( 'NONE', ( #204, #334, #237, #2 ) ) ;
#62 = EDGE_CURVE ( 'NONE', #115, #245, #171, .T. ) ;
#63 = EDGE_CURVE ( 'NONE', #177, #383, #31, .T. ) ;
#64 = DIRECTION ( 'NONE',  ( 0.0000000000000000000, 0.0000000000000000000, 1.000000000000000000 ) ) ;
#65 = EDGE_LOOP ( 'NONE', ( #299, #355, #85, #243 ) ) ;
#66 = CARTESIAN_POINT ( 'NONE',  ( 0.0000000000000000000, 0.0000000000000000000, 130.0000000000000000 ) ) ;
#67 = LINE ( 'NONE', #71, #189 ) ;
#68 = DIRECTION ( 'NONE',  ( -0.0000000000000000000, -0.0000000000000000000, 1.000000000000000000 ) ) ;
#69 = ORIENTED_EDGE ( 'NONE', *, *, #155, .T. ) ;
#70 = AXIS2_PLACEMENT_3D ( 'NONE', #125, #215, #180 ) ;
#71 = CARTESIAN_POINT ( 'NONE',  ( -4.000000000000000000, 4.898587196589412829E-16, 120.0000000000000142 ) ) ;
#72 = DIRECTION ( 'NONE',  ( 0.0000000000000000000, 0.0000000000000000000, 1.000000000000000000 ) ) ;
#73 = PRODUCT_DEFINITION ( 'UNKNOWN', '', #379, #205 ) ;
#74 = ORIENTED_EDGE ( 'NONE', *, *, #155, .F. ) ;
#75 = DIRECTION ( 'NONE',  ( -1.000000000000000000, 0.0000000000000000000, 0.0000000000000000000 ) ) ;
#76 = DATE_TIME_ROLE ( 'classification_date' ) ;
#77 = SECURITY_CLASSIFICATION_LEVEL ( 'unclassified' ) ;
#78 = CARTESIAN_POINT ( 'NONE',  ( 6.000000000000005329, 7.347880794884125653E-16, 130.0000000000000000 ) ) ;
#79 = ORIENTED_EDGE ( 'NONE', *, *, #280, .T. ) ;
#80 = CARTESIAN_POINT ( 'NONE',  ( 3.400000000000000355, 0.0000000000000000000, 122.0000000000000284 ) ) ;
#81 = DIRECTION ( 'NONE',  ( -0.0000000000000000000, -0.0000000000000000000, -1.000000000000000000 ) ) ;
#82 = CIRCLE ( 'NONE', #223, 4.000000000000000000 ) ;
#83 = ORGANIZATION ( 'UNSPECIFIED', 'UNSPECIFIED', '' ) ;
#84 = MECHANICAL_CONTEXT ( 'NONE', #184, 'mechanical' ) ;
#85 = ORIENTED_EDGE ( 'NONE', *, *, #140, .F. ) ;
#86 = VERTEX_POINT ( 'NONE', #306 ) ;
#87 = CARTESIAN_POINT ( 'NONE',  ( 4.000000000000000000, 0.0000000000000000000, 120.0000000000000142 ) ) ;
#88 = EDGE_CURVE ( 'NONE', #39, #365, #321, .T. ) ;
#89 = EDGE_LOOP ( 'NONE', ( #239, #35 ) ) ;
#90 = CYLINDRICAL_SURFACE ( 'NONE', #203, 3.400000000000000355 ) ;
#91 = AXIS2_PLACEMENT_3D ( 'NONE', #151, #44, #276 ) ;
#92 = FACE_BOUND ( 'NONE', #209, .T. ) ;
#93 = APPLICATION_CONTEXT ( 'configuration controlled 3d designs of mechanical parts and assemblies' ) ;
#94 = CARTESIAN_POINT ( 'NONE',  ( 0.0000000000000000000, 0.0000000000000000000, 0.0000000000000000000 ) ) ;
#95 = FACE_OUTER_BOUND ( 'NONE', #65, .T. ) ;
#96 = VERTEX_POINT ( 'NONE', #132 ) ;
#97 = CIRCLE ( 'NONE', #117, 6.000000000000005329 ) ;
#98 = EDGE_CURVE ( 'NONE', #182, #277, #248, .T. ) ;
#99 = APPROVAL ( #163, 'UNSPECIFIED' ) ;
#100 = AXIS2_PLACEMENT_3D ( 'NONE', #346, #313, #75 ) ;
#101 = EDGE_LOOP ( 'NONE', ( #172, #1, #325, #11 ) ) ;
#102 = FACE_OUTER_BOUND ( 'NONE', #113, .T. ) ;
#103 = DIRECTION ( 'NONE',  ( -0.0000000000000000000, -0.0000000000000000000, -1.000000000000000000 ) ) ;
#104 = CALENDAR_DATE ( 2019, 26, 9 ) ;
#105 = ADVANCED_FACE ( 'NONE', ( #102 ), #258, .T. ) ;
#106 = CIRCLE ( 'NONE', #378, 3.400000000000000355 ) ;
#107 = DIRECTION ( 'NONE',  ( -1.000000000000000000, 0.0000000000000000000, 0.0000000000000000000 ) ) ;
#108 = CC_DESIGN_PERSON_AND_ORGANIZATION_ASSIGNMENT ( #18, #337, ( #332 ) ) ;
#109 = DIRECTION ( 'NONE',  ( -0.0000000000000000000, -0.0000000000000000000, -1.000000000000000000 ) ) ;
#110 = FACE_OUTER_BOUND ( 'NONE', #234, .T. ) ;
#111 = CARTESIAN_POINT ( 'NONE',  ( 0.0000000000000000000, 0.0000000000000000000, 130.0000000000000000 ) ) ;
#112 = CALENDAR_DATE ( 2019, 26, 9 ) ;
#113 = EDGE_LOOP ( 'NONE', ( #235, #29, #353, #156 ) ) ;
#114 = CARTESIAN_POINT ( 'NONE',  ( 0.0000000000000000000, 0.0000000000000000000, 0.0000000000000000000 ) ) ;
#115 = VERTEX_POINT ( 'NONE', #363 ) ;
#116 = ORIENTED_EDGE ( 'NONE', *, *, #88, .T. ) ;
#117 = AXIS2_PLACEMENT_3D ( 'NONE', #303, #305, #34 ) ;
#118 = AXIS2_PLACEMENT_3D ( 'NONE', #308, #109, #168 ) ;
#119 = PRODUCT_RELATED_PRODUCT_CATEGORY ( 'detail', '', ( #221 ) ) ;
#120 = ORIENTED_EDGE ( 'NONE', *, *, #140, .T. ) ;
#121 = ORIENTED_EDGE ( 'NONE', *, *, #291, .T. ) ;
#122 = DIRECTION ( 'NONE',  ( -1.000000000000000000, 0.0000000000000000000, 0.0000000000000000000 ) ) ;
#123 = AXIS2_PLACEMENT_3D ( 'NONE', #158, #329, #302 ) ;
#124 = EDGE_LOOP ( 'NONE', ( #336, #79 ) ) ;
#125 = CARTESIAN_POINT ( 'NONE',  ( 0.0000000000000000000, 0.0000000000000000000, 120.0000000000000000 ) ) ;
#126 = ADVANCED_FACE ( 'NONE', ( #361 ), #366, .T. ) ;
#127 = DIRECTION ( 'NONE',  ( 1.000000000000000000, 0.0000000000000000000, 0.0000000000000000000 ) ) ;
#128 = VERTEX_POINT ( 'NONE', #246 ) ;
#129 = EDGE_CURVE ( 'NONE', #217, #43, #242, .T. ) ;
#130 = ORIENTED_EDGE ( 'NONE', *, *, #267, .F. ) ;
#131 = EDGE_CURVE ( 'NONE', #365, #245, #67, .T. ) ;
#132 = CARTESIAN_POINT ( 'NONE',  ( -3.400000000000000355, 0.0000000000000000000, 122.0000000000000284 ) ) ;
#133 = CIRCLE ( 'NONE', #347, 4.000000000000000000 ) ;
#134 = DIRECTION ( 'NONE',  ( 0.0000000000000000000, 0.0000000000000000000, -1.000000000000000000 ) ) ;
#135 = PLANE ( 'NONE',  #143 ) ;
#136 = DIRECTION ( 'NONE',  ( 0.0000000000000000000, 0.0000000000000000000, 1.000000000000000000 ) ) ;
#137 = COORDINATED_UNIVERSAL_TIME_OFFSET ( 1, 0, .AHEAD. ) ;
#138 = CIRCLE ( 'NONE', #70, 3.399999999999999911 ) ;
#139 = ADVANCED_FACE ( 'NONE', ( #214 ), #185, .T. ) ;
#140 = EDGE_CURVE ( 'NONE', #245, #115, #82, .T. ) ;
#141 = DATE_AND_TIME ( #380, #211 ) ;
#142 = DIRECTION ( 'NONE',  ( 0.0000000000000000000, 0.0000000000000000000, -1.000000000000000000 ) ) ;
#143 = AXIS2_PLACEMENT_3D ( 'NONE', #50, #21, #226 ) ;
#144 = PERSON_AND_ORGANIZATION ( #385, #83 ) ;
#145 = ORIENTED_EDGE ( 'NONE', *, *, #339, .F. ) ;
#146 = DIRECTION ( 'NONE',  ( -0.0000000000000000000, -0.0000000000000000000, 1.000000000000000000 ) ) ;
#147 = CARTESIAN_POINT ( 'NONE',  ( 3.000000000000002665, 3.673940397442062826E-16, 130.0000000000000000 ) ) ;
#148 = VECTOR ( 'NONE', #286, 1000.000000000000000 ) ;
#149 = ADVANCED_FACE ( 'NONE', ( #95 ), #304, .T. ) ;
#150 = VERTEX_POINT ( 'NONE', #247 ) ;
#151 = CARTESIAN_POINT ( 'NONE',  ( 0.0000000000000000000, 0.0000000000000000000, 120.0000000000000000 ) ) ;
#152 = CARTESIAN_POINT ( 'NONE',  ( 0.0000000000000000000, 0.0000000000000000000, 122.0000000000000284 ) ) ;
#153 = FACE_OUTER_BOUND ( 'NONE', #278, .T. ) ;
#154 = ORIENTED_EDGE ( 'NONE', *, *, #222, .T. ) ;
#155 = EDGE_CURVE ( 'NONE', #277, #182, #138, .T. ) ;
#156 = ORIENTED_EDGE ( 'NONE', *, *, #62, .F. ) ;
#157 = DIRECTION ( 'NONE',  ( 0.0000000000000000000, 0.0000000000000000000, 1.000000000000000000 ) ) ;
#158 = CARTESIAN_POINT ( 'NONE',  ( 0.0000000000000000000, 0.0000000000000000000, 120.0000000000000142 ) ) ;
#159 = AXIS2_PLACEMENT_3D ( 'NONE', #372, #19, #107 ) ;
#160 = FACE_OUTER_BOUND ( 'NONE', #272, .T. ) ;
#161 = EDGE_CURVE ( 'NONE', #128, #150, #97, .T. ) ;
#162 = CYLINDRICAL_SURFACE ( 'NONE', #159, 6.000000000000005329 ) ;
#163 = APPROVAL_STATUS ( 'not_yet_approved' ) ;
#164 = CARTESIAN_POINT ( 'NONE',  ( 0.0000000000000000000, 0.0000000000000000000, 130.0000000000000000 ) ) ;
#165 = AXIS2_PLACEMENT_3D ( 'NONE', #94, #157, #368 ) ;
#166 =( NAMED_UNIT ( * ) PLANE_ANGLE_UNIT ( ) SI_UNIT ( $, .RADIAN. ) );
#167 = LOCAL_TIME ( 12, 43, 47.00000000000000000, #137 ) ;
#168 = DIRECTION ( 'NONE',  ( -1.000000000000000000, 0.0000000000000000000, 0.0000000000000000000 ) ) ;
#169 = COORDINATED_UNIVERSAL_TIME_OFFSET ( 1, 0, .AHEAD. ) ;
#170 = DIRECTION ( 'NONE',  ( -1.000000000000000000, 0.0000000000000000000, 0.0000000000000000000 ) ) ;
#171 = CIRCLE ( 'NONE', #358, 4.000000000000000000 ) ;
#172 = ORIENTED_EDGE ( 'NONE', *, *, #131, .F. ) ;
#173 = CALENDAR_DATE ( 2019, 26, 9 ) ;
#174 = ORIENTED_EDGE ( 'NONE', *, *, #98, .T. ) ;
#175 = EDGE_CURVE ( 'NONE', #383, #177, #331, .T. ) ;
#176 = DIRECTION ( 'NONE',  ( 1.000000000000000000, 0.0000000000000000000, 0.0000000000000000000 ) ) ;
#177 = VERTEX_POINT ( 'NONE', #40 ) ;
#178 = CIRCLE ( 'NONE', #13, 3.000000000000002665 ) ;
#179 = CARTESIAN_POINT ( 'NONE',  ( 0.0000000000000000000, 0.0000000000000000000, 120.0000000000000142 ) ) ;
#180 = DIRECTION ( 'NONE',  ( -1.000000000000000000, 0.0000000000000000000, 0.0000000000000000000 ) ) ;
#181 = ORIENTED_EDGE ( 'NONE', *, *, #131, .T. ) ;
#182 = VERTEX_POINT ( 'NONE', #41 ) ;
#183 = CARTESIAN_POINT ( 'NONE',  ( 0.0000000000000000000, 0.0000000000000000000, 130.0000000000000000 ) ) ;
#184 = APPLICATION_CONTEXT ( 'configuration controlled 3d designs of mechanical parts and assemblies' ) ;
#185 = CYLINDRICAL_SURFACE ( 'NONE', #340, 4.000000000000000000 ) ;
#186 = DIRECTION ( 'NONE',  ( -1.000000000000000000, 0.0000000000000000000, 0.0000000000000000000 ) ) ;
#187 = FACE_BOUND ( 'NONE', #89, .T. ) ;
#188 = CC_DESIGN_DATE_AND_TIME_ASSIGNMENT ( #225, #76, ( #332 ) ) ;
#189 = VECTOR ( 'NONE', #68, 1000.000000000000000 ) ;
#190 = AXIS2_PLACEMENT_3D ( 'NONE', #338, #17, #193 ) ;
#191 = APPROVAL_DATE_TIME ( #369, #99 ) ;
#192 =( NAMED_UNIT ( * ) SI_UNIT ( $, .STERADIAN. ) SOLID_ANGLE_UNIT ( ) );
#193 = DIRECTION ( 'NONE',  ( 1.000000000000000000, 0.0000000000000000000, 0.0000000000000000000 ) ) ;
#194 = ADVANCED_FACE ( 'NONE', ( #153 ), #330, .T. ) ;
#195 = LINE ( 'NONE', #78, #364 ) ;
#196 = APPROVAL ( #297, 'UNSPECIFIED' ) ;
#197 = AXIS2_PLACEMENT_3D ( 'NONE', #279, #103, #122 ) ;
#198 = FACE_OUTER_BOUND ( 'NONE', #61, .T. ) ;
#199 = PERSON_AND_ORGANIZATION ( #385, #83 ) ;
#200 = DIRECTION ( 'NONE',  ( 1.000000000000000000, 0.0000000000000000000, 0.0000000000000000000 ) ) ;
#201 = ORIENTED_EDGE ( 'NONE', *, *, #161, .T. ) ;
#202 = APPLICATION_PROTOCOL_DEFINITION ( 'international standard', 'config_control_design', 1994, #184 ) ;
#203 = AXIS2_PLACEMENT_3D ( 'NONE', #300, #28, #170 ) ;
#204 = ORIENTED_EDGE ( 'NONE', *, *, #292, .F. ) ;
#205 = DESIGN_CONTEXT ( 'detailed design', #93, 'design' ) ;
#206 = CARTESIAN_POINT ( 'NONE',  ( -3.000000000000002665, 0.0000000000000000000, 130.0000000000000000 ) ) ;
#207 = ADVANCED_FACE ( 'NONE', ( #218, #92 ), #220, .T. ) ;
#208 = CARTESIAN_POINT ( 'NONE',  ( 3.000000000000002665, 4.286263797015737581E-16, 130.0000000000000000 ) ) ;
#209 = EDGE_LOOP ( 'NONE', ( #174, #69 ) ) ;
#210 = VECTOR ( 'NONE', #295, 1000.000000000000000 ) ;
#211 = LOCAL_TIME ( 12, 43, 47.00000000000000000, #60 ) ;
#212 = CARTESIAN_POINT ( 'NONE',  ( 3.400000000000000355, 4.163799117101001052E-16, 0.0000000000000000000 ) ) ;
#213 = EDGE_LOOP ( 'NONE', ( #116, #33 ) ) ;
#214 = FACE_OUTER_BOUND ( 'NONE', #232, .T. ) ;
#215 = DIRECTION ( 'NONE',  ( -0.0000000000000000000, -0.0000000000000000000, -1.000000000000000000 ) ) ;
#216 = CC_DESIGN_APPROVAL ( #196, ( #73 ) ) ;
#217 = VERTEX_POINT ( 'NONE', #241 ) ;
#218 = FACE_OUTER_BOUND ( 'NONE', #362, .T. ) ;
#219 = COORDINATED_UNIVERSAL_TIME_OFFSET ( 1, 0, .AHEAD. ) ;
#220 = PLANE ( 'NONE',  #270 ) ;
#221 = PRODUCT ( 'A_0813-120-12Z', 'A_0813-120-12Z', '', ( #84 ) ) ;
#222 = EDGE_CURVE ( 'NONE', #86, #277, #359, .T. ) ;
#223 = AXIS2_PLACEMENT_3D ( 'NONE', #273, #134, #127 ) ;
#224 = AXIS2_PLACEMENT_3D ( 'NONE', #114, #230, #200 ) ;
#225 = DATE_AND_TIME ( #104, #26 ) ;
#226 = DIRECTION ( 'NONE',  ( 1.000000000000000000, 0.0000000000000000000, -0.0000000000000000000 ) ) ;
#227 = CARTESIAN_POINT ( 'NONE',  ( -3.400000000000000355, 0.0000000000000000000, 0.0000000000000000000 ) ) ;
#228 = LINE ( 'NONE', #227, #59 ) ;
#229 = CIRCLE ( 'NONE', #100, 3.400000000000000355 ) ;
#230 = DIRECTION ( 'NONE',  ( 0.0000000000000000000, 0.0000000000000000000, 1.000000000000000000 ) ) ;
#231 = APPROVAL_DATE_TIME ( #294, #15 ) ;
#232 = EDGE_LOOP ( 'NONE', ( #58, #181, #120, #271 ) ) ;
#233 = DATE_AND_TIME ( #173, #283 ) ;
#234 = EDGE_LOOP ( 'NONE', ( #130, #327, #264, #240 ) ) ;
#235 = ORIENTED_EDGE ( 'NONE', *, *, #6, .F. ) ;
#236 = AXIS2_PLACEMENT_3D ( 'NONE', #66, #333, #244 ) ;
#237 = ORIENTED_EDGE ( 'NONE', *, *, #63, .T. ) ;
#238 = LOCAL_TIME ( 12, 43, 47.00000000000000000, #169 ) ;
#239 = ORIENTED_EDGE ( 'NONE', *, *, #51, .F. ) ;
#240 = ORIENTED_EDGE ( 'NONE', *, *, #175, .T. ) ;
#241 = CARTESIAN_POINT ( 'NONE',  ( -3.000000000000002665, 0.0000000000000000000, 130.0000000000000000 ) ) ;
#242 = CIRCLE ( 'NONE', #236, 3.000000000000002665 ) ;
#243 = ORIENTED_EDGE ( 'NONE', *, *, #53, .F. ) ;
#244 = DIRECTION ( 'NONE',  ( 1.000000000000000000, 0.0000000000000000000, 0.0000000000000000000 ) ) ;
#245 = VERTEX_POINT ( 'NONE', #16 ) ;
#246 = CARTESIAN_POINT ( 'NONE',  ( -6.000000000000005329, 0.0000000000000000000, 120.0000000000000142 ) ) ;
#247 = CARTESIAN_POINT ( 'NONE',  ( 6.000000000000005329, 7.347880794884125653E-16, 120.0000000000000142 ) ) ;
#248 = CIRCLE ( 'NONE', #91, 3.399999999999999911 ) ;
#249 = ADVANCED_FACE ( 'NONE', ( #47, #187 ), #375, .T. ) ;
#250 = CC_DESIGN_PERSON_AND_ORGANIZATION_ASSIGNMENT ( #314, #343, ( #379 ) ) ;
#251 = DIRECTION ( 'NONE',  ( -1.000000000000000000, 0.0000000000000000000, 0.0000000000000000000 ) ) ;
#252 = FACE_OUTER_BOUND ( 'NONE', #124, .T. ) ;
#253 = DIRECTION ( 'NONE',  ( -0.0000000000000000000, -0.0000000000000000000, -1.000000000000000000 ) ) ;
#254 = AXIS2_PLACEMENT_3D ( 'NONE', #111, #136, #288 ) ;
#255 = CC_DESIGN_PERSON_AND_ORGANIZATION_ASSIGNMENT ( #350, #287, ( #379 ) ) ;
#256 = DIRECTION ( 'NONE',  ( 1.000000000000000000, 0.0000000000000000000, 0.0000000000000000000 ) ) ;
#257 =( LENGTH_UNIT ( ) NAMED_UNIT ( * ) SI_UNIT ( .MILLI., .METRE. ) );
#258 = CONICAL_SURFACE ( 'NONE', #25, 3.000000000000002665, 0.7853981633974466137 ) ;
#259 = CC_DESIGN_SECURITY_CLASSIFICATION ( #332, ( #379 ) ) ;
#260 = COORDINATED_UNIVERSAL_TIME_OFFSET ( 1, 0, .AHEAD. ) ;
#261 = CARTESIAN_POINT ( 'NONE',  ( 0.0000000000000000000, 0.0000000000000000000, 0.0000000000000000000 ) ) ;
#262 = EDGE_CURVE ( 'NONE', #128, #383, #318, .T. ) ;
#263 = APPLICATION_PROTOCOL_DEFINITION ( 'international standard', 'config_control_design', 1994, #93 ) ;
#264 = ORIENTED_EDGE ( 'NONE', *, *, #262, .T. ) ;
#265 = ADVANCED_BREP_SHAPE_REPRESENTATION ( 'A_0813-120-12Z', ( #42, #224 ), #374 ) ;
#266 = DIRECTION ( 'NONE',  ( -1.000000000000000000, 0.0000000000000000000, 0.0000000000000000000 ) ) ;
#267 = EDGE_CURVE ( 'NONE', #150, #177, #195, .T. ) ;
#268 = EDGE_CURVE ( 'NONE', #365, #39, #133, .T. ) ;
#269 = VECTOR ( 'NONE', #328, 1000.000000000000000 ) ;
#270 = AXIS2_PLACEMENT_3D ( 'NONE', #179, #72, #301 ) ;
#271 = ORIENTED_EDGE ( 'NONE', *, *, #22, .F. ) ;
#272 = EDGE_LOOP ( 'NONE', ( #370, #298 ) ) ;
#273 = CARTESIAN_POINT ( 'NONE',  ( 0.0000000000000000000, 0.0000000000000000000, 129.0000000000000000 ) ) ;
#274 = DIRECTION ( 'NONE',  ( 0.0000000000000000000, 0.0000000000000000000, -1.000000000000000000 ) ) ;
#275 = ORIENTED_EDGE ( 'NONE', *, *, #292, .T. ) ;
#276 = DIRECTION ( 'NONE',  ( -1.000000000000000000, 0.0000000000000000000, 0.0000000000000000000 ) ) ;
#277 = VERTEX_POINT ( 'NONE', #315 ) ;
#278 = EDGE_LOOP ( 'NONE', ( #37, #154, #310, #145 ) ) ;
#279 = CARTESIAN_POINT ( 'NONE',  ( 0.0000000000000000000, 0.0000000000000000000, 0.0000000000000000000 ) ) ;
#280 = EDGE_CURVE ( 'NONE', #43, #217, #178, .T. ) ;
#281 = DIRECTION ( 'NONE',  ( 1.000000000000000000, 0.0000000000000000000, 0.0000000000000000000 ) ) ;
#282 = VECTOR ( 'NONE', #146, 1000.000000000000000 ) ;
#283 = LOCAL_TIME ( 12, 43, 47.00000000000000000, #260 ) ;
#284 = SHAPE_DEFINITION_REPRESENTATION ( #371, #265 ) ;
#285 = DIRECTION ( 'NONE',  ( -1.000000000000000000, 0.0000000000000000000, 0.0000000000000000000 ) ) ;
#286 = DIRECTION ( 'NONE',  ( -0.0000000000000000000, -0.0000000000000000000, -1.000000000000000000 ) ) ;
#287 = PERSON_AND_ORGANIZATION_ROLE ( 'creator' ) ;
#288 = DIRECTION ( 'NONE',  ( 1.000000000000000000, 0.0000000000000000000, -0.0000000000000000000 ) ) ;
#289 = CC_DESIGN_PERSON_AND_ORGANIZATION_ASSIGNMENT ( #144, #57, ( #221 ) ) ;
#290 = AXIS2_PLACEMENT_3D ( 'NONE', #183, #274, #186 ) ;
#291 = EDGE_CURVE ( 'NONE', #86, #96, #229, .T. ) ;
#292 = EDGE_CURVE ( 'NONE', #150, #128, #317, .T. ) ;
#293 = CARTESIAN_POINT ( 'NONE',  ( -6.000000000000005329, 0.0000000000000000000, 0.0000000000000000000 ) ) ;
#294 = DATE_AND_TIME ( #112, #238 ) ;
#295 = DIRECTION ( 'NONE',  ( -0.7071067811865463515, 0.0000000000000000000, -0.7071067811865487940 ) ) ;
#296 = CARTESIAN_POINT ( 'NONE',  ( 4.000000000000000000, 0.0000000000000000000, 122.0000000000000284 ) ) ;
#297 = APPROVAL_STATUS ( 'not_yet_approved' ) ;
#298 = ORIENTED_EDGE ( 'NONE', *, *, #63, .F. ) ;
#299 = ORIENTED_EDGE ( 'NONE', *, *, #280, .F. ) ;
#300 = CARTESIAN_POINT ( 'NONE',  ( 0.0000000000000000000, 0.0000000000000000000, 0.0000000000000000000 ) ) ;
#301 = DIRECTION ( 'NONE',  ( 1.000000000000000000, 0.0000000000000000000, -0.0000000000000000000 ) ) ;
#302 = DIRECTION ( 'NONE',  ( 1.000000000000000000, 0.0000000000000000000, 0.0000000000000000000 ) ) ;
#303 = CARTESIAN_POINT ( 'NONE',  ( 0.0000000000000000000, 0.0000000000000000000, 120.0000000000000142 ) ) ;
#304 = CONICAL_SURFACE ( 'NONE', #290, 3.000000000000002665, 0.7853981633974466137 ) ;
#305 = DIRECTION ( 'NONE',  ( 0.0000000000000000000, 0.0000000000000000000, 1.000000000000000000 ) ) ;
#306 = CARTESIAN_POINT ( 'NONE',  ( 3.400000000000000355, 4.163799117101001052E-16, 122.0000000000000284 ) ) ;
#307 = PERSON_AND_ORGANIZATION ( #385, #83 ) ;
#308 = CARTESIAN_POINT ( 'NONE',  ( 0.0000000000000000000, 0.0000000000000000000, 130.0000000000000000 ) ) ;
#309 = ADVANCED_FACE ( 'NONE', ( #252 ), #20, .T. ) ;
#310 = ORIENTED_EDGE ( 'NONE', *, *, #98, .F. ) ;
#311 = DIRECTION ( 'NONE',  ( -0.0000000000000000000, -0.0000000000000000000, -1.000000000000000000 ) ) ;
#312 = CC_DESIGN_DATE_AND_TIME_ASSIGNMENT ( #141, #349, ( #73 ) ) ;
#313 = DIRECTION ( 'NONE',  ( -0.0000000000000000000, -0.0000000000000000000, -1.000000000000000000 ) ) ;
#314 = PERSON_AND_ORGANIZATION ( #385, #83 ) ;
#315 = CARTESIAN_POINT ( 'NONE',  ( 3.399999999999999911, 4.163799117101000559E-16, 120.0000000000000000 ) ) ;
#316 = AXIS2_PLACEMENT_3D ( 'NONE', #80, #52, #377 ) ;
#317 = CIRCLE ( 'NONE', #190, 6.000000000000005329 ) ;
#318 = LINE ( 'NONE', #341, #148 ) ;
#319 = APPROVAL_STATUS ( 'not_yet_approved' ) ;
#320 = LINE ( 'NONE', #147, #326 ) ;
#321 = CIRCLE ( 'NONE', #373, 4.000000000000000000 ) ;
#322 = PERSON_AND_ORGANIZATION_ROLE ( 'creator' ) ;
#323 = CARTESIAN_POINT ( 'NONE',  ( 0.0000000000000000000, 0.0000000000000000000, 122.0000000000000284 ) ) ;
#324 = DIRECTION ( 'NONE',  ( 1.000000000000000000, 0.0000000000000000000, 0.0000000000000000000 ) ) ;
#325 = ORIENTED_EDGE ( 'NONE', *, *, #22, .T. ) ;
#326 = VECTOR ( 'NONE', #354, 1000.000000000000000 ) ;
#327 = ORIENTED_EDGE ( 'NONE', *, *, #161, .F. ) ;
#328 = DIRECTION ( 'NONE',  ( -0.0000000000000000000, -0.0000000000000000000, -1.000000000000000000 ) ) ;
#329 = DIRECTION ( 'NONE',  ( -0.0000000000000000000, -0.0000000000000000000, 1.000000000000000000 ) ) ;
#330 = CYLINDRICAL_SURFACE ( 'NONE', #197, 3.400000000000000355 ) ;
#331 = CIRCLE ( 'NONE', #165, 6.000000000000005329 ) ;
#332 = SECURITY_CLASSIFICATION ( '', '', #77 ) ;
#333 = DIRECTION ( 'NONE',  ( 0.0000000000000000000, 0.0000000000000000000, 1.000000000000000000 ) ) ;
#334 = ORIENTED_EDGE ( 'NONE', *, *, #267, .T. ) ;
#335 = DIRECTION ( 'NONE',  ( 0.0000000000000000000, 0.0000000000000000000, 1.000000000000000000 ) ) ;
#336 = ORIENTED_EDGE ( 'NONE', *, *, #129, .T. ) ;
#337 = PERSON_AND_ORGANIZATION_ROLE ( 'classification_officer' ) ;
#338 = CARTESIAN_POINT ( 'NONE',  ( 0.0000000000000000000, 0.0000000000000000000, 120.0000000000000142 ) ) ;
#339 = EDGE_CURVE ( 'NONE', #96, #182, #228, .T. ) ;
#340 = AXIS2_PLACEMENT_3D ( 'NONE', #12, #14, #281 ) ;
#341 = CARTESIAN_POINT ( 'NONE',  ( -6.000000000000005329, 0.0000000000000000000, 130.0000000000000000 ) ) ;
#342 = ADVANCED_FACE ( 'NONE', ( #160 ), #135, .F. ) ;
#343 = PERSON_AND_ORGANIZATION_ROLE ( 'design_supplier' ) ;
#344 = ADVANCED_FACE ( 'NONE', ( #198 ), #55, .T. ) ;
#345 = UNCERTAINTY_MEASURE_WITH_UNIT (LENGTH_MEASURE( 1.000000000000000082E-05 ), #257, 'distance_accuracy_value', 'NONE');
#346 = CARTESIAN_POINT ( 'NONE',  ( 0.0000000000000000000, 0.0000000000000000000, 122.0000000000000284 ) ) ;
#347 = AXIS2_PLACEMENT_3D ( 'NONE', #30, #81, #285 ) ;
#348 = CC_DESIGN_APPROVAL ( #15, ( #379 ) ) ;
#349 = DATE_TIME_ROLE ( 'creation_date' ) ;
#350 = PERSON_AND_ORGANIZATION ( #385, #83 ) ;
#351 = LINE ( 'NONE', #87, #282 ) ;
#352 = APPROVAL_DATE_TIME ( #233, #196 ) ;
#353 = ORIENTED_EDGE ( 'NONE', *, *, #53, .T. ) ;
#354 = DIRECTION ( 'NONE',  ( 0.7071067811865463515, 8.659560562354919300E-17, -0.7071067811865487940 ) ) ;
#355 = ORIENTED_EDGE ( 'NONE', *, *, #6, .T. ) ;
#356 = CC_DESIGN_PERSON_AND_ORGANIZATION_ASSIGNMENT ( #23, #322, ( #73 ) ) ;
#357 = FACE_OUTER_BOUND ( 'NONE', #360, .T. ) ;
#358 = AXIS2_PLACEMENT_3D ( 'NONE', #24, #142, #324 ) ;
#359 = LINE ( 'NONE', #212, #269 ) ;
#360 = EDGE_LOOP ( 'NONE', ( #9, #121, #7, #74 ) ) ;
#361 = FACE_OUTER_BOUND ( 'NONE', #101, .T. ) ;
#362 = EDGE_LOOP ( 'NONE', ( #201, #275 ) ) ;
#363 = CARTESIAN_POINT ( 'NONE',  ( 4.000000000000000000, 0.0000000000000000000, 129.0000000000000000 ) ) ;
#364 = VECTOR ( 'NONE', #311, 1000.000000000000000 ) ;
#365 = VERTEX_POINT ( 'NONE', #54 ) ;
#366 = CYLINDRICAL_SURFACE ( 'NONE', #123, 4.000000000000000000 ) ;
#367 = APPROVAL_PERSON_ORGANIZATION ( #199, #15, #56 ) ;
#368 = DIRECTION ( 'NONE',  ( 1.000000000000000000, 0.0000000000000000000, 0.0000000000000000000 ) ) ;
#369 = DATE_AND_TIME ( #10, #167 ) ;
#370 = ORIENTED_EDGE ( 'NONE', *, *, #175, .F. ) ;
#371 = PRODUCT_DEFINITION_SHAPE ( 'NONE', 'NONE',  #73 ) ;
#372 = CARTESIAN_POINT ( 'NONE',  ( 0.0000000000000000000, 0.0000000000000000000, 130.0000000000000000 ) ) ;
#373 = AXIS2_PLACEMENT_3D ( 'NONE', #152, #3, #251 ) ;
#374 =( GEOMETRIC_REPRESENTATION_CONTEXT ( 3 ) GLOBAL_UNCERTAINTY_ASSIGNED_CONTEXT ( ( #345 ) ) GLOBAL_UNIT_ASSIGNED_CONTEXT ( ( #257, #166, #192 ) ) REPRESENTATION_CONTEXT ( 'NONE', 'WORKASPACE' ) );
#375 = PLANE ( 'NONE',  #316 ) ;
#376 = ADVANCED_FACE ( 'NONE', ( #110 ), #162, .T. ) ;
#377 = DIRECTION ( 'NONE',  ( -1.000000000000000000, 0.0000000000000000000, 0.0000000000000000000 ) ) ;
#378 = AXIS2_PLACEMENT_3D ( 'NONE', #323, #381, #266 ) ;
#379 = PRODUCT_DEFINITION_FORMATION_WITH_SPECIFIED_SOURCE ( 'ANY', '', #221, .NOT_KNOWN. ) ;
#380 = CALENDAR_DATE ( 2019, 26, 9 ) ;
#381 = DIRECTION ( 'NONE',  ( -0.0000000000000000000, -0.0000000000000000000, -1.000000000000000000 ) ) ;
#382 = PERSON_AND_ORGANIZATION ( #385, #83 ) ;
#383 = VERTEX_POINT ( 'NONE', #293 ) ;
#384 = LINE ( 'NONE', #206, #210 ) ;
#385 = PERSON ( 'UNSPECIFIED', 'UNSPECIFIED', 'UNSPECIFIED', ('UNSPECIFIED'), ('UNSPECIFIED'), ('UNSPECIFIED') ) ;
ENDSEC;
END-ISO-10303-21;
