ISO-10303-21;
HEADER;
FILE_DESCRIPTION (( 'STEP AP203' ),
    '1' );
FILE_NAME ('AL_7405-003.STEP',
    '2022-09-13T07:15:26',
    ( '' ),
    ( '' ),
    'SwSTEP 2.0',
    'SolidWorks 2019',
    '' );
FILE_SCHEMA (( 'CONFIG_CONTROL_DESIGN' ));
ENDSEC;

DATA;
#1 = PERSON_AND_ORGANIZATION ( #214, #56 ) ;
#2 = LINE ( 'NONE', #67, #12 ) ;
#3 = PERSON_AND_ORGANIZATION_ROLE ( 'design_owner' ) ;
#4 = CARTESIAN_POINT ( 'NONE',  ( -7.305211467007352688, 1.458305647486309864, 14.00000000000000000 ) ) ;
#5 = COORDINATED_UNIVERSAL_TIME_OFFSET ( 1, 0, .AHEAD. ) ;
#6 = DIRECTION ( 'NONE',  ( 1.000000000000000000, 0.000000000000000000, 0.000000000000000000 ) ) ;
#7 = EDGE_CURVE ( 'NONE', #18, #327, #2, .T. ) ;
#8 = CIRCLE ( 'NONE', #173, 2.099999999999999645 ) ;
#9 = ORIENTED_EDGE ( 'NONE', *, *, #85, .F. ) ;
#10 = DIRECTION ( 'NONE',  ( -0.000000000000000000, -0.000000000000000000, -1.000000000000000000 ) ) ;
#11 = DIRECTION ( 'NONE',  ( -1.000000000000000000, 0.000000000000000000, 0.000000000000000000 ) ) ;
#12 = VECTOR ( 'NONE', #187, 1000.000000000000000 ) ;
#13 = CARTESIAN_POINT ( 'NONE',  ( -7.305211467007352688, -0.7014631309149285121, 0.000000000000000000 ) ) ;
#14 = DIRECTION ( 'NONE',  ( -1.000000000000000000, 0.000000000000000000, 0.000000000000000000 ) ) ;
#15 = FACE_OUTER_BOUND ( 'NONE', #284, .T. ) ;
#16 = CIRCLE ( 'NONE', #131, 2.100000000000000533 ) ;
#17 = CC_DESIGN_DATE_AND_TIME_ASSIGNMENT ( #387, #356, ( #344 ) ) ;
#18 = VERTEX_POINT ( 'NONE', #245 ) ;
#19 = CARTESIAN_POINT ( 'NONE',  ( -9.105211467007352510, -2.001463130914928445, 14.00000000000000000 ) ) ;
#20 = ORIENTED_EDGE ( 'NONE', *, *, #382, .T. ) ;
#21 = AXIS2_PLACEMENT_3D ( 'NONE', #38, #33, #357 ) ;
#22 = DIRECTION ( 'NONE',  ( 1.000000000000000000, 0.000000000000000000, 0.000000000000000000 ) ) ;
#23 = AXIS2_PLACEMENT_3D ( 'NONE', #74, #301, #305 ) ;
#24 = APPLICATION_CONTEXT ( 'configuration controlled 3d designs of mechanical parts and assemblies' ) ;
#25 = DIRECTION ( 'NONE',  ( -1.000000000000000000, 0.000000000000000000, 0.000000000000000000 ) ) ;
#26 = VERTEX_POINT ( 'NONE', #321 ) ;
#27 = PRODUCT ( 'AL_7405-003', 'AL_7405-003', '', ( #314 ) ) ;
#28 = VERTEX_POINT ( 'NONE', #263 ) ;
#29 = CIRCLE ( 'NONE', #220, 0.1203603311174519519 ) ;
#30 = ORIENTED_EDGE ( 'NONE', *, *, #302, .F. ) ;
#31 = PRODUCT_RELATED_PRODUCT_CATEGORY ( 'detail', '', ( #27 ) ) ;
#32 = APPLICATION_PROTOCOL_DEFINITION ( 'international standard', 'config_control_design', 1994, #126 ) ;
#33 = DIRECTION ( 'NONE',  ( 0.000000000000000000, 0.000000000000000000, 1.000000000000000000 ) ) ;
#34 = COORDINATED_UNIVERSAL_TIME_OFFSET ( 1, 0, .AHEAD. ) ;
#35 = EDGE_CURVE ( 'NONE', #26, #165, #358, .T. ) ;
#36 = DESIGN_CONTEXT ( 'detailed design', #126, 'design' ) ;
#37 = CARTESIAN_POINT ( 'NONE',  ( -9.105211467007352510, -2.001463130914928445, 0.000000000000000000 ) ) ;
#38 = CARTESIAN_POINT ( 'NONE',  ( -9.105211467007352510, -2.001463130914928445, 0.000000000000000000 ) ) ;
#39 = AXIS2_PLACEMENT_3D ( 'NONE', #19, #198, #385 ) ;
#40 = DIRECTION ( 'NONE',  ( 0.000000000000000000, 0.000000000000000000, 1.000000000000000000 ) ) ;
#41 = FACE_BOUND ( 'NONE', #329, .T. ) ;
#42 = DIRECTION ( 'NONE',  ( 1.000000000000000000, 0.000000000000000000, 0.000000000000000000 ) ) ;
#43 = CIRCLE ( 'NONE', #197, 3.899999999999999023 ) ;
#44 = CC_DESIGN_APPROVAL ( #98, ( #145 ) ) ;
#45 = DIRECTION ( 'NONE',  ( 1.000000000000000000, 0.000000000000000000, 0.000000000000000000 ) ) ;
#46 = CARTESIAN_POINT ( 'NONE',  ( -9.105211467007352510, -2.001463130914928445, 14.00000000000000000 ) ) ;
#47 = EDGE_CURVE ( 'NONE', #94, #347, #359, .T. ) ;
#48 = DIRECTION ( 'NONE',  ( 0.000000000000000000, 0.000000000000000000, 1.000000000000000000 ) ) ;
#49 = EDGE_CURVE ( 'NONE', #327, #28, #336, .T. ) ;
#50 = ORIENTED_EDGE ( 'NONE', *, *, #169, .T. ) ;
#51 = CYLINDRICAL_SURFACE ( 'NONE', #39, 3.899999999999999023 ) ;
#52 = ORIENTED_EDGE ( 'NONE', *, *, #264, .T. ) ;
#53 = DIRECTION ( 'NONE',  ( -1.000000000000000000, 0.000000000000000000, 0.000000000000000000 ) ) ;
#54 = ORIENTED_EDGE ( 'NONE', *, *, #244, .F. ) ;
#55 = DIRECTION ( 'NONE',  ( 1.000000000000000000, 0.000000000000000000, 0.000000000000000000 ) ) ;
#56 = ORGANIZATION ( 'NEURÈENÝ', 'NEURÈENÝ', '' ) ;
#57 = VERTEX_POINT ( 'NONE', #4 ) ;
#58 = DATE_TIME_ROLE ( 'classification_date' ) ;
#59 = ORIENTED_EDGE ( 'NONE', *, *, #124, .F. ) ;
#60 = ADVANCED_FACE ( 'NONE', ( #122, #210 ), #363, .T. ) ;
#61 = CALENDAR_DATE ( 2022, 13, 9 ) ;
#62 = CIRCLE ( 'NONE', #83, 3.899999999999999023 ) ;
#63 = EDGE_LOOP ( 'NONE', ( #140, #148, #315, #199 ) ) ;
#64 = CARTESIAN_POINT ( 'NONE',  ( -7.305211467007352688, -3.301463130914928268, 14.00000000000000000 ) ) ;
#65 = APPROVAL_DATE_TIME ( #183, #364 ) ;
#66 = DIRECTION ( 'NONE',  ( -0.000000000000000000, -0.000000000000000000, -1.000000000000000000 ) ) ;
#67 = CARTESIAN_POINT ( 'NONE',  ( -13.00521146700735287, -2.001463130914928445, 14.00000000000000000 ) ) ;
#68 = AXIS2_PLACEMENT_3D ( 'NONE', #64, #89, #295 ) ;
#69 = CARTESIAN_POINT ( 'NONE',  ( -9.105211467007352510, -2.001463130914928445, 0.000000000000000000 ) ) ;
#70 = CARTESIAN_POINT ( 'NONE',  ( -7.305211467007353576, -5.461231909316166089, 14.00000000000000000 ) ) ;
#71 = PLANE ( 'NONE',  #360 ) ;
#72 = AXIS2_PLACEMENT_3D ( 'NONE', #285, #48, #22 ) ;
#73 = EDGE_CURVE ( 'NONE', #347, #290, #135, .T. ) ;
#74 = CARTESIAN_POINT ( 'NONE',  ( -9.105211467007352510, -2.001463130914928445, 14.00000000000000000 ) ) ;
#75 = FACE_OUTER_BOUND ( 'NONE', #200, .T. ) ;
#76 = FACE_OUTER_BOUND ( 'NONE', #110, .T. ) ;
#77 = ORIENTED_EDGE ( 'NONE', *, *, #244, .T. ) ;
#78 = LOCAL_TIME ( 9, 15, 26.00000000000000000, #209 ) ;
#79 = ORIENTED_EDGE ( 'NONE', *, *, #35, .F. ) ;
#80 = CARTESIAN_POINT ( 'NONE',  ( 0.000000000000000000, 0.000000000000000000, 0.000000000000000000 ) ) ;
#81 = ORIENTED_EDGE ( 'NONE', *, *, #113, .F. ) ;
#82 = EDGE_CURVE ( 'NONE', #28, #319, #316, .T. ) ;
#83 = AXIS2_PLACEMENT_3D ( 'NONE', #250, #40, #159 ) ;
#84 = ORIENTED_EDGE ( 'NONE', *, *, #176, .F. ) ;
#85 = EDGE_CURVE ( 'NONE', #165, #107, #158, .T. ) ;
#86 = PERSON_AND_ORGANIZATION ( #214, #56 ) ;
#87 = ORIENTED_EDGE ( 'NONE', *, *, #101, .F. ) ;
#88 = COORDINATED_UNIVERSAL_TIME_OFFSET ( 1, 0, .AHEAD. ) ;
#89 = DIRECTION ( 'NONE',  ( -0.000000000000000000, -0.000000000000000000, -1.000000000000000000 ) ) ;
#90 = DATE_AND_TIME ( #320, #127 ) ;
#91 = VECTOR ( 'NONE', #346, 1000.000000000000000 ) ;
#92 = EDGE_LOOP ( 'NONE', ( #273, #59, #54, #168 ) ) ;
#93 = PERSON_AND_ORGANIZATION_ROLE ( 'creator' ) ;
#94 = VERTEX_POINT ( 'NONE', #120 ) ;
#95 = DIRECTION ( 'NONE',  ( 0.000000000000000000, 0.000000000000000000, 1.000000000000000000 ) ) ;
#96 = CYLINDRICAL_SURFACE ( 'NONE', #196, 3.899999999999999023 ) ;
#97 = CIRCLE ( 'NONE', #72, 2.100000000000000533 ) ;
#98 = APPROVAL ( #322, 'NEURÈENÝ' ) ;
#99 = LINE ( 'NONE', #249, #337 ) ;
#100 = FACE_OUTER_BOUND ( 'NONE', #132, .T. ) ;
#101 = EDGE_CURVE ( 'NONE', #254, #28, #243, .T. ) ;
#102 = DIRECTION ( 'NONE',  ( 0.000000000000000000, 0.000000000000000000, 1.000000000000000000 ) ) ;
#103 = LOCAL_TIME ( 9, 15, 26.00000000000000000, #5 ) ;
#104 = CARTESIAN_POINT ( 'NONE',  ( -5.505211467007351978, -2.001463130914928445, 14.00000000000000000 ) ) ;
#105 = LINE ( 'NONE', #224, #91 ) ;
#106 = FACE_OUTER_BOUND ( 'NONE', #171, .T. ) ;
#107 = VERTEX_POINT ( 'NONE', #213 ) ;
#108 = CIRCLE ( 'NONE', #366, 3.899999999999999467 ) ;
#109 = DIRECTION ( 'NONE',  ( -0.000000000000000000, -0.000000000000000000, -1.000000000000000000 ) ) ;
#110 = EDGE_LOOP ( 'NONE', ( #310, #207, #9, #79 ) ) ;
#111 = EDGE_CURVE ( 'NONE', #18, #254, #43, .T. ) ;
#112 = EDGE_LOOP ( 'NONE', ( #84, #379, #50, #230 ) ) ;
#113 = EDGE_CURVE ( 'NONE', #290, #297, #222, .T. ) ;
#114 = APPROVAL_ROLE ( '' ) ;
#115 = DIRECTION ( 'NONE',  ( 1.000000000000000000, 0.000000000000000000, -0.000000000000000000 ) ) ;
#116 = CALENDAR_DATE ( 2022, 13, 9 ) ;
#117 = CARTESIAN_POINT ( 'NONE',  ( -7.402785087367602657, -0.7719329678417757856, 14.00000000000000000 ) ) ;
#118 = ORIENTED_EDGE ( 'NONE', *, *, #211, .F. ) ;
#119 = PERSON_AND_ORGANIZATION ( #214, #56 ) ;
#120 = CARTESIAN_POINT ( 'NONE',  ( -11.20521146700735216, -2.001463130914928445, 14.00000000000000000 ) ) ;
#121 = PERSON_AND_ORGANIZATION ( #214, #56 ) ;
#122 = FACE_OUTER_BOUND ( 'NONE', #269, .T. ) ;
#123 = CARTESIAN_POINT ( 'NONE',  ( -9.105211467007352510, -2.001463130914928445, 14.00000000000000000 ) ) ;
#124 = EDGE_CURVE ( 'NONE', #57, #319, #189, .T. ) ;
#125 = CYLINDRICAL_SURFACE ( 'NONE', #215, 0.1203603311174519519 ) ;
#126 = APPLICATION_CONTEXT ( 'configuration controlled 3d designs of mechanical parts and assemblies' ) ;
#127 = LOCAL_TIME ( 9, 15, 26.00000000000000000, #34 ) ;
#128 = CYLINDRICAL_SURFACE ( 'NONE', #179, 3.899999999999999023 ) ;
#129 = CARTESIAN_POINT ( 'NONE',  ( -7.305211467007352688, -2.001463130914928445, 0.000000000000000000 ) ) ;
#130 = CARTESIAN_POINT ( 'NONE',  ( -7.207637846647104496, -0.7719329678417764518, 14.00000000000000000 ) ) ;
#131 = AXIS2_PLACEMENT_3D ( 'NONE', #167, #161, #309 ) ;
#132 = EDGE_LOOP ( 'NONE', ( #355, #292, #240, #185 ) ) ;
#133 = FACE_OUTER_BOUND ( 'NONE', #63, .T. ) ;
#134 = ORIENTED_EDGE ( 'NONE', *, *, #111, .F. ) ;
#135 = CIRCLE ( 'NONE', #68, 0.1203603311174519519 ) ;
#136 = APPROVAL_PERSON_ORGANIZATION ( #86, #332, #114 ) ;
#137 = DIRECTION ( 'NONE',  ( -1.000000000000000000, 0.000000000000000000, 0.000000000000000000 ) ) ;
#138 = ADVANCED_FACE ( 'NONE', ( #75 ), #128, .T. ) ;
#139 = CARTESIAN_POINT ( 'NONE',  ( -7.305211467007352688, -0.7014631309149285121, 14.00000000000000000 ) ) ;
#140 = ORIENTED_EDGE ( 'NONE', *, *, #7, .F. ) ;
#141 = PRODUCT_DEFINITION_SHAPE ( 'NONE', 'NONE',  #344 ) ;
#142 = PERSON_AND_ORGANIZATION_ROLE ( 'design_supplier' ) ;
#143 = ORIENTED_EDGE ( 'NONE', *, *, #384, .T. ) ;
#144 = DATE_AND_TIME ( #326, #353 ) ;
#145 = SECURITY_CLASSIFICATION ( '', '', #204 ) ;
#146 = VERTEX_POINT ( 'NONE', #216 ) ;
#147 = APPROVAL_ROLE ( '' ) ;
#148 = ORIENTED_EDGE ( 'NONE', *, *, #264, .F. ) ;
#149 = CARTESIAN_POINT ( 'NONE',  ( -9.105211467007352510, -2.001463130914928445, 14.00000000000000000 ) ) ;
#150 = PERSON_AND_ORGANIZATION_ROLE ( 'classification_officer' ) ;
#151 = CIRCLE ( 'NONE', #233, 0.1203603311174519519 ) ;
#152 = ORIENTED_EDGE ( 'NONE', *, *, #47, .F. ) ;
#153 = EDGE_CURVE ( 'NONE', #107, #146, #8, .T. ) ;
#154 = DIRECTION ( 'NONE',  ( -0.000000000000000000, -0.000000000000000000, -1.000000000000000000 ) ) ;
#155 = ADVANCED_FACE ( 'NONE', ( #190, #41 ), #71, .F. ) ;
#156 = DIRECTION ( 'NONE',  ( 1.000000000000000000, 0.000000000000000000, 0.000000000000000000 ) ) ;
#157 = CARTESIAN_POINT ( 'NONE',  ( -9.105211467007352510, -2.001463130914928445, 14.00000000000000000 ) ) ;
#158 = CIRCLE ( 'NONE', #367, 2.099999999999999645 ) ;
#159 = DIRECTION ( 'NONE',  ( 1.000000000000000000, 0.000000000000000000, 0.000000000000000000 ) ) ;
#160 = DIRECTION ( 'NONE',  ( -0.000000000000000000, -0.000000000000000000, -1.000000000000000000 ) ) ;
#161 = DIRECTION ( 'NONE',  ( 0.000000000000000000, 0.000000000000000000, 1.000000000000000000 ) ) ;
#162 = AXIS2_PLACEMENT_3D ( 'NONE', #180, #182, #271 ) ;
#163 = PRODUCT_DEFINITION_FORMATION_WITH_SPECIFIED_SOURCE ( 'LIBOVOLNÝ', '', #27, .NOT_KNOWN. ) ;
#164 = CARTESIAN_POINT ( 'NONE',  ( -7.305211467007352688, 1.458305647486309864, 0.000000000000000000 ) ) ;
#165 = VERTEX_POINT ( 'NONE', #248 ) ;
#166 = CC_DESIGN_DATE_AND_TIME_ASSIGNMENT ( #90, #58, ( #145 ) ) ;
#167 = CARTESIAN_POINT ( 'NONE',  ( -5.505211467007351978, -2.001463130914928445, 0.000000000000000000 ) ) ;
#168 = ORIENTED_EDGE ( 'NONE', *, *, #101, .T. ) ;
#169 = EDGE_CURVE ( 'NONE', #347, #146, #339, .T. ) ;
#170 = DIRECTION ( 'NONE',  ( -0.000000000000000000, -0.000000000000000000, -1.000000000000000000 ) ) ;
#171 = EDGE_LOOP ( 'NONE', ( #312, #81, #20, #143 ) ) ;
#172 = AXIS2_PLACEMENT_3D ( 'NONE', #205, #95, #115 ) ;
#173 = AXIS2_PLACEMENT_3D ( 'NONE', #69, #299, #45 ) ;
#174 = PERSON_AND_ORGANIZATION ( #214, #56 ) ;
#175 = ORIENTED_EDGE ( 'NONE', *, *, #49, .T. ) ;
#176 = EDGE_CURVE ( 'NONE', #94, #107, #99, .T. ) ;
#177 = EDGE_LOOP ( 'NONE', ( #212, #288, #256, #261, #152 ) ) ;
#178 = CLOSED_SHELL ( 'NONE', ( #307, #138, #60, #155, #221, #362, #241, #279, #289, #348 ) ) ;
#179 = AXIS2_PLACEMENT_3D ( 'NONE', #157, #246, #14 ) ;
#180 = CARTESIAN_POINT ( 'NONE',  ( -5.505211467007351978, -2.001463130914928445, 0.000000000000000000 ) ) ;
#181 = PERSON_AND_ORGANIZATION ( #214, #56 ) ;
#182 = DIRECTION ( 'NONE',  ( 0.000000000000000000, 0.000000000000000000, 1.000000000000000000 ) ) ;
#183 = DATE_AND_TIME ( #61, #103 ) ;
#184 = EDGE_CURVE ( 'NONE', #26, #94, #293, .T. ) ;
#185 = ORIENTED_EDGE ( 'NONE', *, *, #35, .T. ) ;
#186 = CC_DESIGN_PERSON_AND_ORGANIZATION_ASSIGNMENT ( #174, #3, ( #27 ) ) ;
#187 = DIRECTION ( 'NONE',  ( -0.000000000000000000, -0.000000000000000000, -1.000000000000000000 ) ) ;
#188 = DIRECTION ( 'NONE',  ( 0.000000000000000000, 0.000000000000000000, 1.000000000000000000 ) ) ;
#189 = LINE ( 'NONE', #333, #252 ) ;
#190 = FACE_OUTER_BOUND ( 'NONE', #267, .T. ) ;
#191 = CIRCLE ( 'NONE', #276, 0.1203603311174519519 ) ;
#192 = FACE_OUTER_BOUND ( 'NONE', #112, .T. ) ;
#193 = CARTESIAN_POINT ( 'NONE',  ( -7.402785087367603545, -3.230993293988081660, 14.00000000000000000 ) ) ;
#194 = CC_DESIGN_PERSON_AND_ORGANIZATION_ASSIGNMENT ( #1, #93, ( #163 ) ) ;
#195 = ORIENTED_EDGE ( 'NONE', *, *, #302, .T. ) ;
#196 = AXIS2_PLACEMENT_3D ( 'NONE', #104, #154, #11 ) ;
#197 = AXIS2_PLACEMENT_3D ( 'NONE', #123, #188, #42 ) ;
#198 = DIRECTION ( 'NONE',  ( -0.000000000000000000, -0.000000000000000000, -1.000000000000000000 ) ) ;
#199 = ORIENTED_EDGE ( 'NONE', *, *, #211, .T. ) ;
#200 = EDGE_LOOP ( 'NONE', ( #134, #225, #175, #87 ) ) ;
#201 = CARTESIAN_POINT ( 'NONE',  ( -7.305211467007352688, -3.301463130914928268, 0.000000000000000000 ) ) ;
#202 = ORIENTED_EDGE ( 'NONE', *, *, #153, .T. ) ;
#203 = CC_DESIGN_APPROVAL ( #364, ( #344 ) ) ;
#204 = SECURITY_CLASSIFICATION_LEVEL ( 'unclassified' ) ;
#205 = CARTESIAN_POINT ( 'NONE',  ( -7.305211467007352688, -2.001463130914928445, 14.00000000000000000 ) ) ;
#206 = APPROVAL_DATE_TIME ( #234, #332 ) ;
#207 = ORIENTED_EDGE ( 'NONE', *, *, #176, .T. ) ;
#208 = VECTOR ( 'NONE', #238, 1000.000000000000000 ) ;
#209 = COORDINATED_UNIVERSAL_TIME_OFFSET ( 1, 0, .AHEAD. ) ;
#210 = FACE_BOUND ( 'NONE', #177, .T. ) ;
#211 = EDGE_CURVE ( 'NONE', #319, #327, #62, .T. ) ;
#212 = ORIENTED_EDGE ( 'NONE', *, *, #184, .F. ) ;
#213 = CARTESIAN_POINT ( 'NONE',  ( -11.20521146700735216, -2.001463130914928445, 0.000000000000000000 ) ) ;
#214 = PERSON ( 'NEURÈENÝ', 'NEURÈENÝ', 'NEURÈENÝ', ('NEURÈENÝ'), ('NEURÈENÝ'), ('NEURÈENÝ') ) ;
#215 = AXIS2_PLACEMENT_3D ( 'NONE', #335, #219, #338 ) ;
#216 = CARTESIAN_POINT ( 'NONE',  ( -7.402785087367603545, -3.230993293988081660, 0.000000000000000000 ) ) ;
#217 = DIRECTION ( 'NONE',  ( -0.000000000000000000, -0.000000000000000000, -1.000000000000000000 ) ) ;
#218 = DIRECTION ( 'NONE',  ( -0.000000000000000000, -0.000000000000000000, -1.000000000000000000 ) ) ;
#219 = DIRECTION ( 'NONE',  ( -0.000000000000000000, -0.000000000000000000, -1.000000000000000000 ) ) ;
#220 = AXIS2_PLACEMENT_3D ( 'NONE', #139, #351, #287 ) ;
#221 = ADVANCED_FACE ( 'NONE', ( #373 ), #96, .T. ) ;
#222 = LINE ( 'NONE', #298, #331 ) ;
#223 = CC_DESIGN_PERSON_AND_ORGANIZATION_ASSIGNMENT ( #239, #328, ( #344 ) ) ;
#224 = CARTESIAN_POINT ( 'NONE',  ( -7.207637846647104496, -0.7719329678417764518, 14.00000000000000000 ) ) ;
#225 = ORIENTED_EDGE ( 'NONE', *, *, #7, .T. ) ;
#226 = DIRECTION ( 'NONE',  ( -0.000000000000000000, -0.000000000000000000, -1.000000000000000000 ) ) ;
#227 = AXIS2_PLACEMENT_3D ( 'NONE', #149, #388, #323 ) ;
#228 = ORIENTED_EDGE ( 'NONE', *, *, #111, .T. ) ;
#229 =( NAMED_UNIT ( * ) SI_UNIT ( $, .STERADIAN. ) SOLID_ANGLE_UNIT ( ) );
#230 = ORIENTED_EDGE ( 'NONE', *, *, #153, .F. ) ;
#231 = CARTESIAN_POINT ( 'NONE',  ( -5.505211467007351978, -2.001463130914928445, 14.00000000000000000 ) ) ;
#232 = DIRECTION ( 'NONE',  ( -1.000000000000000000, 0.000000000000000000, 0.000000000000000000 ) ) ;
#233 = AXIS2_PLACEMENT_3D ( 'NONE', #201, #226, #53 ) ;
#234 = DATE_AND_TIME ( #294, #380 ) ;
#235 = CARTESIAN_POINT ( 'NONE',  ( -5.505211467007351978, -2.001463130914928445, 14.00000000000000000 ) ) ;
#236 = EDGE_CURVE ( 'NONE', #341, #165, #191, .T. ) ;
#237 = APPROVAL_STATUS ( 'not_yet_approved' ) ;
#238 = DIRECTION ( 'NONE',  ( -0.000000000000000000, -0.000000000000000000, -1.000000000000000000 ) ) ;
#239 = PERSON_AND_ORGANIZATION ( #214, #56 ) ;
#240 = ORIENTED_EDGE ( 'NONE', *, *, #313, .T. ) ;
#241 = ADVANCED_FACE ( 'NONE', ( #100 ), #125, .T. ) ;
#242 = AXIS2_PLACEMENT_3D ( 'NONE', #253, #109, #25 ) ;
#243 = LINE ( 'NONE', #361, #352 ) ;
#244 = EDGE_CURVE ( 'NONE', #254, #57, #108, .T. ) ;
#245 = CARTESIAN_POINT ( 'NONE',  ( -13.00521146700735287, -2.001463130914928445, 14.00000000000000000 ) ) ;
#246 = DIRECTION ( 'NONE',  ( -0.000000000000000000, -0.000000000000000000, -1.000000000000000000 ) ) ;
#247 = AXIS2_PLACEMENT_3D ( 'NONE', #258, #170, #232 ) ;
#248 = CARTESIAN_POINT ( 'NONE',  ( -7.402785087367602657, -0.7719329678417757856, 0.000000000000000000 ) ) ;
#249 = CARTESIAN_POINT ( 'NONE',  ( -11.20521146700735216, -2.001463130914928445, 14.00000000000000000 ) ) ;
#250 = CARTESIAN_POINT ( 'NONE',  ( -9.105211467007352510, -2.001463130914928445, 0.000000000000000000 ) ) ;
#251 = CYLINDRICAL_SURFACE ( 'NONE', #242, 0.1203603311174519519 ) ;
#252 = VECTOR ( 'NONE', #218, 1000.000000000000000 ) ;
#253 = CARTESIAN_POINT ( 'NONE',  ( -7.305211467007352688, -3.301463130914928268, 14.00000000000000000 ) ) ;
#254 = VERTEX_POINT ( 'NONE', #70 ) ;
#255 =( LENGTH_UNIT ( ) NAMED_UNIT ( * ) SI_UNIT ( .MILLI., .METRE. ) );
#256 = ORIENTED_EDGE ( 'NONE', *, *, #382, .F. ) ;
#257 = AXIS2_PLACEMENT_3D ( 'NONE', #46, #160, #280 ) ;
#258 = CARTESIAN_POINT ( 'NONE',  ( -9.105211467007352510, -2.001463130914928445, 14.00000000000000000 ) ) ;
#259 = ORIENTED_EDGE ( 'NONE', *, *, #49, .F. ) ;
#260 = CARTESIAN_POINT ( 'NONE',  ( -7.207637846647104496, -0.7719329678417764518, 0.000000000000000000 ) ) ;
#261 = ORIENTED_EDGE ( 'NONE', *, *, #73, .F. ) ;
#262 = COORDINATED_UNIVERSAL_TIME_OFFSET ( 1, 0, .AHEAD. ) ;
#263 = CARTESIAN_POINT ( 'NONE',  ( -7.305211467007353576, -5.461231909316166089, 0.000000000000000000 ) ) ;
#264 = EDGE_CURVE ( 'NONE', #57, #18, #324, .T. ) ;
#265 = AXIS2_PLACEMENT_3D ( 'NONE', #231, #308, #137 ) ;
#266 = APPROVAL_ROLE ( '' ) ;
#267 = EDGE_LOOP ( 'NONE', ( #350, #259, #118 ) ) ;
#268 = SHAPE_DEFINITION_REPRESENTATION ( #141, #349 ) ;
#269 = EDGE_LOOP ( 'NONE', ( #77, #52, #228 ) ) ;
#270 = PERSON_AND_ORGANIZATION ( #214, #56 ) ;
#271 = DIRECTION ( 'NONE',  ( 1.000000000000000000, 0.000000000000000000, 0.000000000000000000 ) ) ;
#272 = APPROVAL_PERSON_ORGANIZATION ( #121, #364, #147 ) ;
#273 = ORIENTED_EDGE ( 'NONE', *, *, #82, .T. ) ;
#274 = DIRECTION ( 'NONE',  ( 0.000000000000000000, 0.000000000000000000, 1.000000000000000000 ) ) ;
#275 = DIRECTION ( 'NONE',  ( 1.000000000000000000, 0.000000000000000000, -0.000000000000000000 ) ) ;
#276 = AXIS2_PLACEMENT_3D ( 'NONE', #13, #217, #156 ) ;
#277 = DIRECTION ( 'NONE',  ( -0.000000000000000000, -0.000000000000000000, -1.000000000000000000 ) ) ;
#278 = DIRECTION ( 'NONE',  ( 1.000000000000000000, 0.000000000000000000, 0.000000000000000000 ) ) ;
#279 = ADVANCED_FACE ( 'NONE', ( #192 ), #306, .F. ) ;
#280 = DIRECTION ( 'NONE',  ( -1.000000000000000000, 0.000000000000000000, 0.000000000000000000 ) ) ;
#281 =( NAMED_UNIT ( * ) PLANE_ANGLE_UNIT ( ) SI_UNIT ( $, .RADIAN. ) );
#282 = ORIENTED_EDGE ( 'NONE', *, *, #113, .T. ) ;
#283 = CARTESIAN_POINT ( 'NONE',  ( -7.207637846647103608, -3.230993293988080772, 0.000000000000000000 ) ) ;
#284 = EDGE_LOOP ( 'NONE', ( #30, #381, #376, #282 ) ) ;
#285 = CARTESIAN_POINT ( 'NONE',  ( -5.505211467007351978, -2.001463130914928445, 14.00000000000000000 ) ) ;
#286 = VERTEX_POINT ( 'NONE', #130 ) ;
#287 = DIRECTION ( 'NONE',  ( 1.000000000000000000, 0.000000000000000000, 0.000000000000000000 ) ) ;
#288 = ORIENTED_EDGE ( 'NONE', *, *, #313, .F. ) ;
#289 = ADVANCED_FACE ( 'NONE', ( #15 ), #251, .T. ) ;
#290 = VERTEX_POINT ( 'NONE', #378 ) ;
#291 = EDGE_CURVE ( 'NONE', #297, #341, #16, .T. ) ;
#292 = ORIENTED_EDGE ( 'NONE', *, *, #384, .F. ) ;
#293 = CIRCLE ( 'NONE', #389, 2.099999999999999645 ) ;
#294 = CALENDAR_DATE ( 2022, 13, 9 ) ;
#295 = DIRECTION ( 'NONE',  ( -1.000000000000000000, 0.000000000000000000, 0.000000000000000000 ) ) ;
#296 = DIRECTION ( 'NONE',  ( 0.000000000000000000, 0.000000000000000000, 1.000000000000000000 ) ) ;
#297 = VERTEX_POINT ( 'NONE', #283 ) ;
#298 = CARTESIAN_POINT ( 'NONE',  ( -7.207637846647103608, -3.230993293988080772, 14.00000000000000000 ) ) ;
#299 = DIRECTION ( 'NONE',  ( 0.000000000000000000, 0.000000000000000000, 1.000000000000000000 ) ) ;
#300 = CC_DESIGN_PERSON_AND_ORGANIZATION_ASSIGNMENT ( #119, #150, ( #145 ) ) ;
#301 = DIRECTION ( 'NONE',  ( 0.000000000000000000, 0.000000000000000000, 1.000000000000000000 ) ) ;
#302 = EDGE_CURVE ( 'NONE', #146, #297, #151, .T. ) ;
#303 = VECTOR ( 'NONE', #365, 1000.000000000000000 ) ;
#304 = UNCERTAINTY_MEASURE_WITH_UNIT (LENGTH_MEASURE( 1.000000000000000082E-05 ), #255, 'distance_accuracy_value', 'NONE');
#305 = DIRECTION ( 'NONE',  ( 1.000000000000000000, 0.000000000000000000, 0.000000000000000000 ) ) ;
#306 = CYLINDRICAL_SURFACE ( 'NONE', #257, 2.099999999999999645 ) ;
#307 = ADVANCED_FACE ( 'NONE', ( #76 ), #342, .F. ) ;
#308 = DIRECTION ( 'NONE',  ( -0.000000000000000000, -0.000000000000000000, -1.000000000000000000 ) ) ;
#309 = DIRECTION ( 'NONE',  ( 1.000000000000000000, 0.000000000000000000, 0.000000000000000000 ) ) ;
#310 = ORIENTED_EDGE ( 'NONE', *, *, #184, .T. ) ;
#311 = APPLICATION_PROTOCOL_DEFINITION ( 'international standard', 'config_control_design', 1994, #24 ) ;
#312 = ORIENTED_EDGE ( 'NONE', *, *, #291, .F. ) ;
#313 = EDGE_CURVE ( 'NONE', #286, #26, #29, .T. ) ;
#314 = MECHANICAL_CONTEXT ( 'NONE', #24, 'mechanical' ) ;
#315 = ORIENTED_EDGE ( 'NONE', *, *, #124, .T. ) ;
#316 = CIRCLE ( 'NONE', #162, 3.899999999999999467 ) ;
#317 = CC_DESIGN_SECURITY_CLASSIFICATION ( #145, ( #163 ) ) ;
#318 = APPROVAL_DATE_TIME ( #144, #98 ) ;
#319 = VERTEX_POINT ( 'NONE', #164 ) ;
#320 = CALENDAR_DATE ( 2022, 13, 9 ) ;
#321 = CARTESIAN_POINT ( 'NONE',  ( -7.402785087367602657, -0.7719329678417757856, 14.00000000000000000 ) ) ;
#322 = APPROVAL_STATUS ( 'not_yet_approved' ) ;
#323 = DIRECTION ( 'NONE',  ( 1.000000000000000000, 0.000000000000000000, 0.000000000000000000 ) ) ;
#324 = CIRCLE ( 'NONE', #23, 3.899999999999999023 ) ;
#325 = CC_DESIGN_APPROVAL ( #332, ( #163 ) ) ;
#326 = CALENDAR_DATE ( 2022, 13, 9 ) ;
#327 = VERTEX_POINT ( 'NONE', #383 ) ;
#328 = PERSON_AND_ORGANIZATION_ROLE ( 'creator' ) ;
#329 = EDGE_LOOP ( 'NONE', ( #386, #330, #202, #195, #345 ) ) ;
#330 = ORIENTED_EDGE ( 'NONE', *, *, #85, .T. ) ;
#331 = VECTOR ( 'NONE', #10, 1000.000000000000000 ) ;
#332 = APPROVAL ( #354, 'NEURÈENÝ' ) ;
#333 = CARTESIAN_POINT ( 'NONE',  ( -7.305211467007352688, 1.458305647486309864, 14.00000000000000000 ) ) ;
#334 = DIRECTION ( 'NONE',  ( 1.000000000000000000, 0.000000000000000000, 0.000000000000000000 ) ) ;
#335 = CARTESIAN_POINT ( 'NONE',  ( -7.305211467007352688, -0.7014631309149285121, 14.00000000000000000 ) ) ;
#336 = CIRCLE ( 'NONE', #21, 3.899999999999999023 ) ;
#337 = VECTOR ( 'NONE', #277, 1000.000000000000000 ) ;
#338 = DIRECTION ( 'NONE',  ( -1.000000000000000000, 0.000000000000000000, 0.000000000000000000 ) ) ;
#339 = LINE ( 'NONE', #370, #303 ) ;
#340 = CYLINDRICAL_SURFACE ( 'NONE', #265, 2.100000000000000977 ) ;
#341 = VERTEX_POINT ( 'NONE', #260 ) ;
#342 = CYLINDRICAL_SURFACE ( 'NONE', #247, 2.099999999999999645 ) ;
#343 =( GEOMETRIC_REPRESENTATION_CONTEXT ( 3 ) GLOBAL_UNCERTAINTY_ASSIGNED_CONTEXT ( ( #304 ) ) GLOBAL_UNIT_ASSIGNED_CONTEXT ( ( #255, #281, #229 ) ) REPRESENTATION_CONTEXT ( 'NONE', 'WORKASPACE' ) );
#344 = PRODUCT_DEFINITION ( 'NEZNÁMÝ', '', #163, #36 ) ;
#345 = ORIENTED_EDGE ( 'NONE', *, *, #291, .T. ) ;
#346 = DIRECTION ( 'NONE',  ( -0.000000000000000000, -0.000000000000000000, -1.000000000000000000 ) ) ;
#347 = VERTEX_POINT ( 'NONE', #193 ) ;
#348 = ADVANCED_FACE ( 'NONE', ( #106 ), #340, .F. ) ;
#349 = ADVANCED_BREP_SHAPE_REPRESENTATION ( 'AL_7405-003', ( #374, #371 ), #343 ) ;
#350 = ORIENTED_EDGE ( 'NONE', *, *, #82, .F. ) ;
#351 = DIRECTION ( 'NONE',  ( -0.000000000000000000, -0.000000000000000000, -1.000000000000000000 ) ) ;
#352 = VECTOR ( 'NONE', #66, 1000.000000000000000 ) ;
#353 = LOCAL_TIME ( 9, 15, 26.00000000000000000, #88 ) ;
#354 = APPROVAL_STATUS ( 'not_yet_approved' ) ;
#355 = ORIENTED_EDGE ( 'NONE', *, *, #236, .F. ) ;
#356 = DATE_TIME_ROLE ( 'creation_date' ) ;
#357 = DIRECTION ( 'NONE',  ( 1.000000000000000000, 0.000000000000000000, 0.000000000000000000 ) ) ;
#358 = LINE ( 'NONE', #117, #208 ) ;
#359 = CIRCLE ( 'NONE', #227, 2.099999999999999645 ) ;
#360 = AXIS2_PLACEMENT_3D ( 'NONE', #129, #368, #275 ) ;
#361 = CARTESIAN_POINT ( 'NONE',  ( -7.305211467007353576, -5.461231909316166089, 14.00000000000000000 ) ) ;
#362 = ADVANCED_FACE ( 'NONE', ( #133 ), #51, .T. ) ;
#363 = PLANE ( 'NONE',  #172 ) ;
#364 = APPROVAL ( #237, 'NEURÈENÝ' ) ;
#365 = DIRECTION ( 'NONE',  ( -0.000000000000000000, -0.000000000000000000, -1.000000000000000000 ) ) ;
#366 = AXIS2_PLACEMENT_3D ( 'NONE', #235, #274, #334 ) ;
#367 = AXIS2_PLACEMENT_3D ( 'NONE', #37, #296, #6 ) ;
#368 = DIRECTION ( 'NONE',  ( 0.000000000000000000, 0.000000000000000000, 1.000000000000000000 ) ) ;
#369 = CARTESIAN_POINT ( 'NONE',  ( -9.105211467007352510, -2.001463130914928445, 14.00000000000000000 ) ) ;
#370 = CARTESIAN_POINT ( 'NONE',  ( -7.402785087367603545, -3.230993293988081660, 14.00000000000000000 ) ) ;
#371 = AXIS2_PLACEMENT_3D ( 'NONE', #80, #375, #55 ) ;
#372 = APPROVAL_PERSON_ORGANIZATION ( #270, #98, #266 ) ;
#373 = FACE_OUTER_BOUND ( 'NONE', #92, .T. ) ;
#374 = MANIFOLD_SOLID_BREP ( 'Pøidat vysunutím1', #178 ) ;
#375 = DIRECTION ( 'NONE',  ( 0.000000000000000000, 0.000000000000000000, 1.000000000000000000 ) ) ;
#376 = ORIENTED_EDGE ( 'NONE', *, *, #73, .T. ) ;
#377 = CC_DESIGN_PERSON_AND_ORGANIZATION_ASSIGNMENT ( #181, #142, ( #163 ) ) ;
#378 = CARTESIAN_POINT ( 'NONE',  ( -7.207637846647103608, -3.230993293988080772, 14.00000000000000000 ) ) ;
#379 = ORIENTED_EDGE ( 'NONE', *, *, #47, .T. ) ;
#380 = LOCAL_TIME ( 9, 15, 26.00000000000000000, #262 ) ;
#381 = ORIENTED_EDGE ( 'NONE', *, *, #169, .F. ) ;
#382 = EDGE_CURVE ( 'NONE', #290, #286, #97, .T. ) ;
#383 = CARTESIAN_POINT ( 'NONE',  ( -13.00521146700735287, -2.001463130914928445, 0.000000000000000000 ) ) ;
#384 = EDGE_CURVE ( 'NONE', #286, #341, #105, .T. ) ;
#385 = DIRECTION ( 'NONE',  ( -1.000000000000000000, 0.000000000000000000, 0.000000000000000000 ) ) ;
#386 = ORIENTED_EDGE ( 'NONE', *, *, #236, .T. ) ;
#387 = DATE_AND_TIME ( #116, #78 ) ;
#388 = DIRECTION ( 'NONE',  ( 0.000000000000000000, 0.000000000000000000, 1.000000000000000000 ) ) ;
#389 = AXIS2_PLACEMENT_3D ( 'NONE', #369, #102, #278 ) ;
ENDSEC;
END-ISO-10303-21;
