ISO-10303-21;
HEADER;
FILE_DESCRIPTION (( 'STEP AP203' ),
    '1' );
FILE_NAME ('A_0224-2512.STEP',
    '2025-05-30T09:36:32',
    ( '' ),
    ( '' ),
    'SwSTEP 2.0',
    'SolidWorks 2019',
    '' );
FILE_SCHEMA (( 'CONFIG_CONTROL_DESIGN' ));
ENDSEC;

DATA;
#1 = CARTESIAN_POINT ( 'NONE',  ( 7.885239380104568274E-16, 1.785895869008041759, 6.438786583686480824 ) ) ;
#2 = CARTESIAN_POINT ( 'NONE',  ( 0.000000000000000000, 23.02531754730548741, -6.250000000000000000 ) ) ;
#3 = ORIENTED_EDGE ( 'NONE', *, *, #79, .T. ) ;
#4 = CARTESIAN_POINT ( 'NONE',  ( 0.000000000000000000, 23.21410413099196646, 0.000000000000000000 ) ) ;
#5 = DIRECTION ( 'NONE',  ( -0.000000000000000000, 1.000000000000000000, -0.000000000000000000 ) ) ;
#6 = ORIENTED_EDGE ( 'NONE', *, *, #140, .T. ) ;
#7 = AXIS2_PLACEMENT_3D ( 'NONE', #65, #41, #142 ) ;
#8 = LOCAL_TIME ( 11, 36, 32.00000000000000000, #161 ) ;
#9 = DIRECTION ( 'NONE',  ( -0.000000000000000000, 1.000000000000000000, -0.000000000000000000 ) ) ;
#10 = CALENDAR_DATE ( 2025, 30, 5 ) ;
#11 = COORDINATED_UNIVERSAL_TIME_OFFSET ( 1, 0, .AHEAD. ) ;
#12 = AXIS2_PLACEMENT_3D ( 'NONE', #56, #155, #229 ) ;
#13 = PERSON ( 'NEURÈENÝ', 'NEURÈENÝ', 'NEURÈENÝ', ('NEURÈENÝ'), ('NEURÈENÝ'), ('NEURÈENÝ') ) ;
#14 = LINE ( 'NONE', #185, #31 ) ;
#15 = CARTESIAN_POINT ( 'NONE',  ( 7.885239380104566302E-16, 1.785895869008043535, 6.438786583686479048 ) ) ;
#16 = CYLINDRICAL_SURFACE ( 'NONE', #66, 6.250000000000000000 ) ;
#17 = CYLINDRICAL_SURFACE ( 'NONE', #174, 6.250000000000000000 ) ;
#18 = ORIENTED_EDGE ( 'NONE', *, *, #80, .F. ) ;
#19 = AXIS2_PLACEMENT_3D ( 'NONE', #97, #123, #273 ) ;
#20 = ADVANCED_FACE ( 'NONE', ( #127 ), #99, .T. ) ;
#21 = LOCAL_TIME ( 11, 36, 32.00000000000000000, #210 ) ;
#22 = PRODUCT_DEFINITION ( 'NEZNÁMÝ', '', #64, #148 ) ;
#23 = DIRECTION ( 'NONE',  ( 0.000000000000000000, 0.000000000000000000, -1.000000000000000000 ) ) ;
#24 = PRODUCT_RELATED_PRODUCT_CATEGORY ( 'detail', '', ( #213 ) ) ;
#25 = VECTOR ( 'NONE', #42, 1000.000000000000000 ) ;
#26 = CARTESIAN_POINT ( 'NONE',  ( 0.000000000000000000, 23.21410413099196646, 6.438786583686480824 ) ) ;
#27 = EDGE_CURVE ( 'NONE', #256, #270, #143, .T. ) ;
#28 = ORIENTED_EDGE ( 'NONE', *, *, #232, .T. ) ;
#29 = DIRECTION ( 'NONE',  ( 0.000000000000000000, 0.000000000000000000, -1.000000000000000000 ) ) ;
#30 = ORIENTED_EDGE ( 'NONE', *, *, #163, .T. ) ;
#31 = VECTOR ( 'NONE', #141, 1000.000000000000000 ) ;
#32 = CIRCLE ( 'NONE', #235, 6.250000000000000000 ) ;
#33 = SHAPE_DEFINITION_REPRESENTATION ( #132, #100 ) ;
#34 = CARTESIAN_POINT ( 'NONE',  ( 7.654042494670957606E-16, 1.974682452694526136, 6.250000000000000000 ) ) ;
#35 = DIRECTION ( 'NONE',  ( -0.000000000000000000, 1.000000000000000000, -0.000000000000000000 ) ) ;
#36 = PERSON_AND_ORGANIZATION_ROLE ( 'creator' ) ;
#37 = DIRECTION ( 'NONE',  ( 0.000000000000000000, 1.000000000000000000, 0.000000000000000000 ) ) ;
#38 = CIRCLE ( 'NONE', #49, 6.438786583686480824 ) ;
#39 = EDGE_LOOP ( 'NONE', ( #286, #304, #320, #121, #129 ) ) ;
#40 = CARTESIAN_POINT ( 'NONE',  ( 6.438786583686480824, 1.785895869008043535, -7.885239380104572219E-16 ) ) ;
#41 = DIRECTION ( 'NONE',  ( -0.000000000000000000, 1.000000000000000000, -0.000000000000000000 ) ) ;
#42 = DIRECTION ( 'NONE',  ( 0.000000000000000000, -1.000000000000000000, 0.000000000000000000 ) ) ;
#43 = CARTESIAN_POINT ( 'NONE',  ( 0.000000000000000000, 1.785895869008043535, 0.000000000000000000 ) ) ;
#44 = VERTEX_POINT ( 'NONE', #92 ) ;
#45 = ADVANCED_FACE ( 'NONE', ( #246 ), #16, .F. ) ;
#46 = CIRCLE ( 'NONE', #205, 6.438786583686480824 ) ;
#47 = EDGE_CURVE ( 'NONE', #201, #154, #53, .T. ) ;
#48 = DIRECTION ( 'NONE',  ( 0.000000000000000000, 1.000000000000000000, 0.000000000000000000 ) ) ;
#49 = AXIS2_PLACEMENT_3D ( 'NONE', #193, #37, #215 ) ;
#50 = CARTESIAN_POINT ( 'NONE',  ( 0.000000000000000000, 1.785895869008043535, 0.000000000000000000 ) ) ;
#51 = CONICAL_SURFACE ( 'NONE', #281, 6.438786583686480824, 0.7853981633974552734 ) ;
#52 = EDGE_CURVE ( 'NONE', #154, #146, #329, .T. ) ;
#53 = CIRCLE ( 'NONE', #208, 6.438786583686478160 ) ;
#54 = ORIENTED_EDGE ( 'NONE', *, *, #258, .T. ) ;
#55 = ORIENTED_EDGE ( 'NONE', *, *, #197, .T. ) ;
#56 = CARTESIAN_POINT ( 'NONE',  ( 0.000000000000000000, 23.21410413099196646, 0.000000000000000000 ) ) ;
#57 = VERTEX_POINT ( 'NONE', #204 ) ;
#58 = CC_DESIGN_SECURITY_CLASSIFICATION ( #279, ( #64 ) ) ;
#59 = APPROVAL_ROLE ( '' ) ;
#60 = CARTESIAN_POINT ( 'NONE',  ( 0.000000000000000000, 23.21410413099196646, 0.000000000000000000 ) ) ;
#61 = DIRECTION ( 'NONE',  ( 0.000000000000000000, 0.000000000000000000, 1.000000000000000000 ) ) ;
#62 = VECTOR ( 'NONE', #251, 1000.000000000000114 ) ;
#63 = ORIENTED_EDGE ( 'NONE', *, *, #197, .F. ) ;
#64 = PRODUCT_DEFINITION_FORMATION_WITH_SPECIFIED_SOURCE ( 'LIBOVOLNÝ', '', #213, .NOT_KNOWN. ) ;
#65 = CARTESIAN_POINT ( 'NONE',  ( 0.000000000000000000, 23.02531754730548741, 0.000000000000000000 ) ) ;
#66 = AXIS2_PLACEMENT_3D ( 'NONE', #119, #303, #218 ) ;
#67 = DIRECTION ( 'NONE',  ( -1.224646799147353207E-16, 0.000000000000000000, -1.000000000000000000 ) ) ;
#68 = DIRECTION ( 'NONE',  ( -0.000000000000000000, -0.000000000000000000, -1.000000000000000000 ) ) ;
#69 = ORIENTED_EDGE ( 'NONE', *, *, #171, .F. ) ;
#70 = CARTESIAN_POINT ( 'NONE',  ( -6.438786583686478160, 23.21410413099196646, 0.000000000000000000 ) ) ;
#71 = CARTESIAN_POINT ( 'NONE',  ( 0.000000000000000000, 12.50000000000000178, 0.000000000000000000 ) ) ;
#72 = ORIENTED_EDGE ( 'NONE', *, *, #232, .F. ) ;
#73 = ORIENTED_EDGE ( 'NONE', *, *, #27, .F. ) ;
#74 = CIRCLE ( 'NONE', #122, 6.438786583686480824 ) ;
#75 = DIRECTION ( 'NONE',  ( 0.000000000000000000, -1.000000000000000000, 0.000000000000000000 ) ) ;
#76 = ORGANIZATION ( 'NEURÈENÝ', 'NEURÈENÝ', '' ) ;
#77 = EDGE_LOOP ( 'NONE', ( #69, #6, #138, #30, #55, #153 ) ) ;
#78 = EDGE_CURVE ( 'NONE', #146, #57, #91, .T. ) ;
#79 = EDGE_CURVE ( 'NONE', #331, #256, #32, .T. ) ;
#80 = EDGE_CURVE ( 'NONE', #256, #146, #178, .T. ) ;
#81 = MECHANICAL_CONTEXT ( 'NONE', #203, 'mechanical' ) ;
#82 = CARTESIAN_POINT ( 'NONE',  ( 7.885239380104570246E-16, 23.21410413099196646, -6.438786583686480824 ) ) ;
#83 = DATE_AND_TIME ( #316, #8 ) ;
#84 = CARTESIAN_POINT ( 'NONE',  ( 0.000000000000000000, 1.974682452694526136, 0.000000000000000000 ) ) ;
#85 = AXIS2_PLACEMENT_3D ( 'NONE', #298, #247, #324 ) ;
#86 = ORIENTED_EDGE ( 'NONE', *, *, #326, .T. ) ;
#87 = LINE ( 'NONE', #223, #267 ) ;
#88 = APPROVAL_ROLE ( '' ) ;
#89 = APPROVAL_PERSON_ORGANIZATION ( #315, #260, #59 ) ;
#90 = DIRECTION ( 'NONE',  ( 0.000000000000000000, 0.000000000000000000, -1.000000000000000000 ) ) ;
#91 = CIRCLE ( 'NONE', #301, 6.438786583686478160 ) ;
#92 = CARTESIAN_POINT ( 'NONE',  ( 0.000000000000000000, 1.785895869008043535, -6.438786583686479048 ) ) ;
#93 = AXIS2_PLACEMENT_3D ( 'NONE', #280, #200, #118 ) ;
#94 = ORIENTED_EDGE ( 'NONE', *, *, #80, .T. ) ;
#95 = CARTESIAN_POINT ( 'NONE',  ( 7.885239380104570246E-16, 23.21410413099196646, -6.438786583686480824 ) ) ;
#96 = FACE_OUTER_BOUND ( 'NONE', #77, .T. ) ;
#97 = CARTESIAN_POINT ( 'NONE',  ( 0.000000000000000000, 1.785895869008041759, 0.000000000000000000 ) ) ;
#98 = ORIENTED_EDGE ( 'NONE', *, *, #140, .F. ) ;
#99 = SPHERICAL_SURFACE ( 'NONE', #108, 12.50000000000000178 ) ;
#100 = ADVANCED_BREP_SHAPE_REPRESENTATION ( 'A_0224-2512', ( #209, #312 ), #325 ) ;
#101 = DIRECTION ( 'NONE',  ( 0.000000000000000000, 0.000000000000000000, 1.000000000000000000 ) ) ;
#102 = ADVANCED_FACE ( 'NONE', ( #211 ), #191, .F. ) ;
#103 = AXIS2_PLACEMENT_3D ( 'NONE', #219, #67, #245 ) ;
#104 = ORIENTED_EDGE ( 'NONE', *, *, #78, .T. ) ;
#105 = APPROVAL ( #214, 'NEURÈENÝ' ) ;
#106 = LOCAL_TIME ( 11, 36, 32.00000000000000000, #11 ) ;
#107 = ADVANCED_FACE ( 'NONE', ( #158 ), #51, .F. ) ;
#108 = AXIS2_PLACEMENT_3D ( 'NONE', #168, #68, #276 ) ;
#109 = DIRECTION ( 'NONE',  ( 0.000000000000000000, 0.000000000000000000, -1.000000000000000000 ) ) ;
#110 = APPROVAL_DATE_TIME ( #181, #321 ) ;
#111 = PERSON_AND_ORGANIZATION_ROLE ( 'creator' ) ;
#112 = DIRECTION ( 'NONE',  ( 0.000000000000000000, 0.000000000000000000, 1.000000000000000000 ) ) ;
#113 = COORDINATED_UNIVERSAL_TIME_OFFSET ( 1, 0, .AHEAD. ) ;
#114 = CALENDAR_DATE ( 2025, 30, 5 ) ;
#115 = ORIENTED_EDGE ( 'NONE', *, *, #318, .T. ) ;
#116 = PERSON_AND_ORGANIZATION ( #13, #76 ) ;
#117 = CC_DESIGN_PERSON_AND_ORGANIZATION_ASSIGNMENT ( #295, #157, ( #64 ) ) ;
#118 = DIRECTION ( 'NONE',  ( 1.000000000000000000, 0.000000000000000000, 0.000000000000000000 ) ) ;
#119 = CARTESIAN_POINT ( 'NONE',  ( 0.000000000000000000, 50.00000000000000000, 0.000000000000000000 ) ) ;
#120 = DIRECTION ( 'NONE',  ( 0.000000000000000000, 1.000000000000000000, 0.000000000000000000 ) ) ;
#121 = ORIENTED_EDGE ( 'NONE', *, *, #199, .F. ) ;
#122 = AXIS2_PLACEMENT_3D ( 'NONE', #275, #120, #173 ) ;
#123 = DIRECTION ( 'NONE',  ( -0.000000000000000000, -1.000000000000000000, -0.000000000000000000 ) ) ;
#124 = CLOSED_SHELL ( 'NONE', ( #139, #107, #287, #20, #166, #45, #102, #224 ) ) ;
#125 = DIRECTION ( 'NONE',  ( 0.000000000000000000, 0.000000000000000000, -1.000000000000000000 ) ) ;
#126 = ORIENTED_EDGE ( 'NONE', *, *, #261, .F. ) ;
#127 = FACE_OUTER_BOUND ( 'NONE', #228, .T. ) ;
#128 = CARTESIAN_POINT ( 'NONE',  ( 0.000000000000000000, 23.02531754730548741, 0.000000000000000000 ) ) ;
#129 = ORIENTED_EDGE ( 'NONE', *, *, #296, .F. ) ;
#130 = CC_DESIGN_DATE_AND_TIME_ASSIGNMENT ( #265, #288, ( #279 ) ) ;
#131 = AXIS2_PLACEMENT_3D ( 'NONE', #60, #9, #183 ) ;
#132 = PRODUCT_DEFINITION_SHAPE ( 'NONE', 'NONE',  #22 ) ;
#133 = APPROVAL_DATE_TIME ( #263, #105 ) ;
#134 = FACE_OUTER_BOUND ( 'NONE', #283, .T. ) ;
#135 = AXIS2_PLACEMENT_3D ( 'NONE', #238, #314, #125 ) ;
#136 = SECURITY_CLASSIFICATION_LEVEL ( 'unclassified' ) ;
#137 = APPROVAL_STATUS ( 'not_yet_approved' ) ;
#138 = ORIENTED_EDGE ( 'NONE', *, *, #47, .T. ) ;
#139 = ADVANCED_FACE ( 'NONE', ( #134 ), #309, .F. ) ;
#140 = EDGE_CURVE ( 'NONE', #57, #201, #187, .T. ) ;
#141 = DIRECTION ( 'NONE',  ( 0.000000000000000000, 0.7071067811865426878, 0.7071067811865524577 ) ) ;
#142 = DIRECTION ( 'NONE',  ( 0.000000000000000000, 0.000000000000000000, 1.000000000000000000 ) ) ;
#143 = LINE ( 'NONE', #327, #25 ) ;
#144 = DIRECTION ( 'NONE',  ( 0.000000000000000000, 1.000000000000000000, 0.000000000000000000 ) ) ;
#145 = EDGE_CURVE ( 'NONE', #307, #254, #302, .T. ) ;
#146 = VERTEX_POINT ( 'NONE', #95 ) ;
#147 = AXIS2_PLACEMENT_3D ( 'NONE', #278, #306, #90 ) ;
#148 = DESIGN_CONTEXT ( 'detailed design', #255, 'design' ) ;
#149 = DIRECTION ( 'NONE',  ( -0.000000000000000000, -0.000000000000000000, -1.000000000000000000 ) ) ;
#150 = LOCAL_TIME ( 11, 36, 32.00000000000000000, #113 ) ;
#151 = VECTOR ( 'NONE', #264, 1000.000000000000000 ) ;
#152 = SPHERICAL_SURFACE ( 'NONE', #294, 12.50000000000000178 ) ;
#153 = ORIENTED_EDGE ( 'NONE', *, *, #296, .T. ) ;
#154 = VERTEX_POINT ( 'NONE', #70 ) ;
#155 = DIRECTION ( 'NONE',  ( 0.000000000000000000, -1.000000000000000000, 0.000000000000000000 ) ) ;
#156 = ORIENTED_EDGE ( 'NONE', *, *, #79, .F. ) ;
#157 = PERSON_AND_ORGANIZATION_ROLE ( 'design_supplier' ) ;
#158 = FACE_OUTER_BOUND ( 'NONE', #253, .T. ) ;
#159 =( LENGTH_UNIT ( ) NAMED_UNIT ( * ) SI_UNIT ( .MILLI., .METRE. ) );
#160 = CIRCLE ( 'NONE', #93, 12.50000000000000178 ) ;
#161 = COORDINATED_UNIVERSAL_TIME_OFFSET ( 1, 0, .AHEAD. ) ;
#162 = EDGE_LOOP ( 'NONE', ( #54, #308, #175, #73 ) ) ;
#163 = EDGE_CURVE ( 'NONE', #154, #206, #160, .T. ) ;
#164 = APPLICATION_PROTOCOL_DEFINITION ( 'international standard', 'config_control_design', 1994, #203 ) ;
#165 = FACE_OUTER_BOUND ( 'NONE', #39, .T. ) ;
#166 = ADVANCED_FACE ( 'NONE', ( #96 ), #152, .T. ) ;
#167 = DIRECTION ( 'NONE',  ( 0.000000000000000000, -1.000000000000000000, 0.000000000000000000 ) ) ;
#168 = CARTESIAN_POINT ( 'NONE',  ( 0.000000000000000000, 12.50000000000000178, 0.000000000000000000 ) ) ;
#169 = ORIENTED_EDGE ( 'NONE', *, *, #27, .T. ) ;
#170 = DIRECTION ( 'NONE',  ( 8.659560562354872461E-17, -0.7071067811865522357, 0.7071067811865426878 ) ) ;
#171 = EDGE_CURVE ( 'NONE', #57, #297, #330, .T. ) ;
#172 = CC_DESIGN_APPROVAL ( #260, ( #279 ) ) ;
#173 = DIRECTION ( 'NONE',  ( 0.000000000000000000, 0.000000000000000000, 1.000000000000000000 ) ) ;
#174 = AXIS2_PLACEMENT_3D ( 'NONE', #328, #196, #23 ) ;
#175 = ORIENTED_EDGE ( 'NONE', *, *, #261, .T. ) ;
#176 = ORIENTED_EDGE ( 'NONE', *, *, #258, .F. ) ;
#177 = AXIS2_PLACEMENT_3D ( 'NONE', #50, #48, #252 ) ;
#178 = LINE ( 'NONE', #82, #151 ) ;
#179 = CC_DESIGN_APPROVAL ( #105, ( #22 ) ) ;
#180 = ORIENTED_EDGE ( 'NONE', *, *, #52, .T. ) ;
#181 = DATE_AND_TIME ( #114, #106 ) ;
#182 = CALENDAR_DATE ( 2025, 30, 5 ) ;
#183 = DIRECTION ( 'NONE',  ( 0.000000000000000000, 0.000000000000000000, 1.000000000000000000 ) ) ;
#184 = PERSON_AND_ORGANIZATION ( #13, #76 ) ;
#185 = CARTESIAN_POINT ( 'NONE',  ( 0.000000000000000000, 23.21410413099196646, 6.438786583686480824 ) ) ;
#186 = CC_DESIGN_PERSON_AND_ORGANIZATION_ASSIGNMENT ( #241, #292, ( #279 ) ) ;
#187 = CIRCLE ( 'NONE', #147, 6.438786583686478160 ) ;
#188 = ORIENTED_EDGE ( 'NONE', *, *, #78, .F. ) ;
#189 = CARTESIAN_POINT ( 'NONE',  ( 0.000000000000000000, 1.785895869008041759, -6.438786583686480824 ) ) ;
#190 = AXIS2_PLACEMENT_3D ( 'NONE', #84, #244, #109 ) ;
#191 = CONICAL_SURFACE ( 'NONE', #131, 6.438786583686480824, 0.7853981633974552734 ) ;
#192 = FACE_OUTER_BOUND ( 'NONE', #162, .T. ) ;
#193 = CARTESIAN_POINT ( 'NONE',  ( 0.000000000000000000, 1.785895869008043535, 0.000000000000000000 ) ) ;
#194 = EDGE_LOOP ( 'NONE', ( #18, #156, #86, #98, #188 ) ) ;
#195 = EDGE_CURVE ( 'NONE', #331, #307, #87, .T. ) ;
#196 = DIRECTION ( 'NONE',  ( 0.000000000000000000, -1.000000000000000000, 0.000000000000000000 ) ) ;
#197 = EDGE_CURVE ( 'NONE', #206, #254, #74, .T. ) ;
#198 = DIRECTION ( 'NONE',  ( 0.000000000000000000, 0.000000000000000000, 1.000000000000000000 ) ) ;
#199 = EDGE_CURVE ( 'NONE', #297, #44, #237, .T. ) ;
#200 = DIRECTION ( 'NONE',  ( -0.000000000000000000, 0.000000000000000000, 1.000000000000000000 ) ) ;
#201 = VERTEX_POINT ( 'NONE', #26 ) ;
#202 = ORIENTED_EDGE ( 'NONE', *, *, #52, .F. ) ;
#203 = APPLICATION_CONTEXT ( 'configuration controlled 3d designs of mechanical parts and assemblies' ) ;
#204 = CARTESIAN_POINT ( 'NONE',  ( 6.438786583686478160, 23.21410413099196646, -7.885239380104570246E-16 ) ) ;
#205 = AXIS2_PLACEMENT_3D ( 'NONE', #43, #144, #198 ) ;
#206 = VERTEX_POINT ( 'NONE', #217 ) ;
#207 = APPROVAL_PERSON_ORGANIZATION ( #242, #105, #88 ) ;
#208 = AXIS2_PLACEMENT_3D ( 'NONE', #4, #75, #285 ) ;
#209 = MANIFOLD_SOLID_BREP ( 'Zkosení1', #124 ) ;
#210 = COORDINATED_UNIVERSAL_TIME_OFFSET ( 1, 0, .AHEAD. ) ;
#211 = FACE_OUTER_BOUND ( 'NONE', #194, .T. ) ;
#212 = COORDINATED_UNIVERSAL_TIME_OFFSET ( 1, 0, .AHEAD. ) ;
#213 = PRODUCT ( 'A_0224-2512', 'A_0224-2512', '', ( #81 ) ) ;
#214 = APPROVAL_STATUS ( 'not_yet_approved' ) ;
#215 = DIRECTION ( 'NONE',  ( 0.000000000000000000, 0.000000000000000000, 1.000000000000000000 ) ) ;
#216 = ORIENTED_EDGE ( 'NONE', *, *, #47, .F. ) ;
#217 = CARTESIAN_POINT ( 'NONE',  ( -6.438786583686480824, 1.785895869008043535, 0.000000000000000000 ) ) ;
#218 = DIRECTION ( 'NONE',  ( 0.000000000000000000, 0.000000000000000000, -1.000000000000000000 ) ) ;
#219 = CARTESIAN_POINT ( 'NONE',  ( 0.000000000000000000, 12.50000000000000178, 0.000000000000000000 ) ) ;
#220 = CONICAL_SURFACE ( 'NONE', #19, 6.438786583686480824, 0.7853981633974415066 ) ;
#221 = ORIENTED_EDGE ( 'NONE', *, *, #195, .F. ) ;
#222 = UNCERTAINTY_MEASURE_WITH_UNIT (LENGTH_MEASURE( 1.000000000000000082E-05 ), #159, 'distance_accuracy_value', 'NONE');
#223 = CARTESIAN_POINT ( 'NONE',  ( 7.654042494670957606E-16, 50.00000000000000000, 6.250000000000000000 ) ) ;
#224 = ADVANCED_FACE ( 'NONE', ( #165 ), #220, .F. ) ;
#225 = DIRECTION ( 'NONE',  ( -1.000000000000000000, 0.000000000000000000, 0.000000000000000000 ) ) ;
#226 = LOCAL_TIME ( 11, 36, 32.00000000000000000, #212 ) ;
#227 = ORIENTED_EDGE ( 'NONE', *, *, #199, .T. ) ;
#228 = EDGE_LOOP ( 'NONE', ( #180, #104, #277, #227, #28, #243 ) ) ;
#229 = DIRECTION ( 'NONE',  ( 0.000000000000000000, 0.000000000000000000, -1.000000000000000000 ) ) ;
#230 = EDGE_LOOP ( 'NONE', ( #221, #3, #169, #115 ) ) ;
#231 = CIRCLE ( 'NONE', #85, 6.250000000000000000 ) ;
#232 = EDGE_CURVE ( 'NONE', #44, #206, #46, .T. ) ;
#233 = EDGE_CURVE ( 'NONE', #270, #44, #322, .T. ) ;
#234 = CIRCLE ( 'NONE', #190, 6.250000000000000000 ) ;
#235 = AXIS2_PLACEMENT_3D ( 'NONE', #128, #5, #101 ) ;
#236 = PERSON_AND_ORGANIZATION ( #13, #76 ) ;
#237 = CIRCLE ( 'NONE', #177, 6.438786583686480824 ) ;
#238 = CARTESIAN_POINT ( 'NONE',  ( 0.000000000000000000, 1.785895869008041759, 0.000000000000000000 ) ) ;
#239 = APPROVAL_DATE_TIME ( #268, #260 ) ;
#240 = APPROVAL_ROLE ( '' ) ;
#241 = PERSON_AND_ORGANIZATION ( #13, #76 ) ;
#242 = PERSON_AND_ORGANIZATION ( #13, #76 ) ;
#243 = ORIENTED_EDGE ( 'NONE', *, *, #163, .F. ) ;
#244 = DIRECTION ( 'NONE',  ( -0.000000000000000000, -1.000000000000000000, -0.000000000000000000 ) ) ;
#245 = DIRECTION ( 'NONE',  ( -1.000000000000000000, 0.000000000000000000, 1.224646799147353207E-16 ) ) ;
#246 = FACE_OUTER_BOUND ( 'NONE', #230, .T. ) ;
#247 = DIRECTION ( 'NONE',  ( -0.000000000000000000, -1.000000000000000000, -0.000000000000000000 ) ) ;
#248 = ORIENTED_EDGE ( 'NONE', *, *, #145, .T. ) ;
#249 = CIRCLE ( 'NONE', #7, 6.250000000000000000 ) ;
#250 = APPROVAL_PERSON_ORGANIZATION ( #184, #321, #240 ) ;
#251 = DIRECTION ( 'NONE',  ( 0.000000000000000000, -0.7071067811865522357, -0.7071067811865426878 ) ) ;
#252 = DIRECTION ( 'NONE',  ( 0.000000000000000000, 0.000000000000000000, 1.000000000000000000 ) ) ;
#253 = EDGE_LOOP ( 'NONE', ( #176, #94, #202, #216, #311 ) ) ;
#254 = VERTEX_POINT ( 'NONE', #15 ) ;
#255 = APPLICATION_CONTEXT ( 'configuration controlled 3d designs of mechanical parts and assemblies' ) ;
#256 = VERTEX_POINT ( 'NONE', #2 ) ;
#257 = CARTESIAN_POINT ( 'NONE',  ( 0.000000000000000000, 23.21410413099196646, 0.000000000000000000 ) ) ;
#258 = EDGE_CURVE ( 'NONE', #256, #331, #249, .T. ) ;
#259 = CC_DESIGN_DATE_AND_TIME_ASSIGNMENT ( #83, #291, ( #22 ) ) ;
#260 = APPROVAL ( #290, 'NEURÈENÝ' ) ;
#261 = EDGE_CURVE ( 'NONE', #307, #270, #231, .T. ) ;
#262 = PERSON_AND_ORGANIZATION ( #13, #76 ) ;
#263 = DATE_AND_TIME ( #182, #21 ) ;
#264 = DIRECTION ( 'NONE',  ( 8.659560562354994488E-17, 0.7071067811865426878, -0.7071067811865524577 ) ) ;
#265 = DATE_AND_TIME ( #10, #150 ) ;
#266 = DIRECTION ( 'NONE',  ( 1.000000000000000000, 0.000000000000000000, 0.000000000000000000 ) ) ;
#267 = VECTOR ( 'NONE', #167, 1000.000000000000000 ) ;
#268 = DATE_AND_TIME ( #271, #226 ) ;
#269 = CARTESIAN_POINT ( 'NONE',  ( 7.654042494670957606E-16, 23.02531754730548741, 6.250000000000000000 ) ) ;
#270 = VERTEX_POINT ( 'NONE', #305 ) ;
#271 = CALENDAR_DATE ( 2025, 30, 5 ) ;
#272 = APPLICATION_PROTOCOL_DEFINITION ( 'international standard', 'config_control_design', 1994, #255 ) ;
#273 = DIRECTION ( 'NONE',  ( 0.000000000000000000, 0.000000000000000000, -1.000000000000000000 ) ) ;
#274 = CC_DESIGN_PERSON_AND_ORGANIZATION_ASSIGNMENT ( #262, #36, ( #64 ) ) ;
#275 = CARTESIAN_POINT ( 'NONE',  ( 0.000000000000000000, 1.785895869008043535, 0.000000000000000000 ) ) ;
#276 = DIRECTION ( 'NONE',  ( -1.000000000000000000, 0.000000000000000000, 0.000000000000000000 ) ) ;
#277 = ORIENTED_EDGE ( 'NONE', *, *, #171, .T. ) ;
#278 = CARTESIAN_POINT ( 'NONE',  ( 0.000000000000000000, 23.21410413099196646, 0.000000000000000000 ) ) ;
#279 = SECURITY_CLASSIFICATION ( '', '', #136 ) ;
#280 = CARTESIAN_POINT ( 'NONE',  ( 0.000000000000000000, 12.50000000000000178, 0.000000000000000000 ) ) ;
#281 = AXIS2_PLACEMENT_3D ( 'NONE', #289, #35, #112 ) ;
#282 = ORIENTED_EDGE ( 'NONE', *, *, #233, .F. ) ;
#283 = EDGE_LOOP ( 'NONE', ( #126, #248, #63, #72, #282 ) ) ;
#284 = VECTOR ( 'NONE', #170, 1000.000000000000114 ) ;
#285 = DIRECTION ( 'NONE',  ( 0.000000000000000000, 0.000000000000000000, -1.000000000000000000 ) ) ;
#286 = ORIENTED_EDGE ( 'NONE', *, *, #145, .F. ) ;
#287 = ADVANCED_FACE ( 'NONE', ( #192 ), #17, .F. ) ;
#288 = DATE_TIME_ROLE ( 'classification_date' ) ;
#289 = CARTESIAN_POINT ( 'NONE',  ( 0.000000000000000000, 23.21410413099196646, 0.000000000000000000 ) ) ;
#290 = APPROVAL_STATUS ( 'not_yet_approved' ) ;
#291 = DATE_TIME_ROLE ( 'creation_date' ) ;
#292 = PERSON_AND_ORGANIZATION_ROLE ( 'classification_officer' ) ;
#293 =( NAMED_UNIT ( * ) SI_UNIT ( $, .STERADIAN. ) SOLID_ANGLE_UNIT ( ) );
#294 = AXIS2_PLACEMENT_3D ( 'NONE', #71, #149, #225 ) ;
#295 = PERSON_AND_ORGANIZATION ( #13, #76 ) ;
#296 = EDGE_CURVE ( 'NONE', #254, #297, #38, .T. ) ;
#297 = VERTEX_POINT ( 'NONE', #40 ) ;
#298 = CARTESIAN_POINT ( 'NONE',  ( 0.000000000000000000, 1.974682452694526136, 0.000000000000000000 ) ) ;
#299 = CC_DESIGN_APPROVAL ( #321, ( #64 ) ) ;
#300 = CC_DESIGN_PERSON_AND_ORGANIZATION_ASSIGNMENT ( #236, #111, ( #22 ) ) ;
#301 = AXIS2_PLACEMENT_3D ( 'NONE', #257, #310, #29 ) ;
#302 = LINE ( 'NONE', #1, #284 ) ;
#303 = DIRECTION ( 'NONE',  ( 0.000000000000000000, -1.000000000000000000, 0.000000000000000000 ) ) ;
#304 = ORIENTED_EDGE ( 'NONE', *, *, #318, .F. ) ;
#305 = CARTESIAN_POINT ( 'NONE',  ( 0.000000000000000000, 1.974682452694526136, -6.250000000000000000 ) ) ;
#306 = DIRECTION ( 'NONE',  ( 0.000000000000000000, -1.000000000000000000, 0.000000000000000000 ) ) ;
#307 = VERTEX_POINT ( 'NONE', #34 ) ;
#308 = ORIENTED_EDGE ( 'NONE', *, *, #195, .T. ) ;
#309 = CONICAL_SURFACE ( 'NONE', #135, 6.438786583686480824, 0.7853981633974415066 ) ;
#310 = DIRECTION ( 'NONE',  ( 0.000000000000000000, -1.000000000000000000, 0.000000000000000000 ) ) ;
#311 = ORIENTED_EDGE ( 'NONE', *, *, #326, .F. ) ;
#312 = AXIS2_PLACEMENT_3D ( 'NONE', #313, #61, #266 ) ;
#313 = CARTESIAN_POINT ( 'NONE',  ( 0.000000000000000000, 0.000000000000000000, 0.000000000000000000 ) ) ;
#314 = DIRECTION ( 'NONE',  ( -0.000000000000000000, -1.000000000000000000, -0.000000000000000000 ) ) ;
#315 = PERSON_AND_ORGANIZATION ( #13, #76 ) ;
#316 = CALENDAR_DATE ( 2025, 30, 5 ) ;
#317 =( NAMED_UNIT ( * ) PLANE_ANGLE_UNIT ( ) SI_UNIT ( $, .RADIAN. ) );
#318 = EDGE_CURVE ( 'NONE', #270, #307, #234, .T. ) ;
#319 = CC_DESIGN_PERSON_AND_ORGANIZATION_ASSIGNMENT ( #116, #323, ( #213 ) ) ;
#320 = ORIENTED_EDGE ( 'NONE', *, *, #233, .T. ) ;
#321 = APPROVAL ( #137, 'NEURÈENÝ' ) ;
#322 = LINE ( 'NONE', #189, #62 ) ;
#323 = PERSON_AND_ORGANIZATION_ROLE ( 'design_owner' ) ;
#324 = DIRECTION ( 'NONE',  ( 0.000000000000000000, 0.000000000000000000, -1.000000000000000000 ) ) ;
#325 =( GEOMETRIC_REPRESENTATION_CONTEXT ( 3 ) GLOBAL_UNCERTAINTY_ASSIGNED_CONTEXT ( ( #222 ) ) GLOBAL_UNIT_ASSIGNED_CONTEXT ( ( #159, #317, #293 ) ) REPRESENTATION_CONTEXT ( 'NONE', 'WORKASPACE' ) );
#326 = EDGE_CURVE ( 'NONE', #331, #201, #14, .T. ) ;
#327 = CARTESIAN_POINT ( 'NONE',  ( 0.000000000000000000, 50.00000000000000000, -6.250000000000000000 ) ) ;
#328 = CARTESIAN_POINT ( 'NONE',  ( 0.000000000000000000, 50.00000000000000000, 0.000000000000000000 ) ) ;
#329 = CIRCLE ( 'NONE', #12, 6.438786583686478160 ) ;
#330 = CIRCLE ( 'NONE', #103, 12.50000000000000178 ) ;
#331 = VERTEX_POINT ( 'NONE', #269 ) ;
ENDSEC;
END-ISO-10303-21;
