ISO-10303-21;
HEADER;
FILE_DESCRIPTION (( 'STEP AP203' ),
    '1' );
FILE_NAME ('A_0224-3012.STEP',
    '2025-05-30T10:03:51',
    ( '' ),
    ( '' ),
    'SwSTEP 2.0',
    'SolidWorks 2019',
    '' );
FILE_SCHEMA (( 'CONFIG_CONTROL_DESIGN' ));
ENDSEC;

DATA;
#1 = SECURITY_CLASSIFICATION ( '', '', #53 ) ;
#2 = SPHERICAL_SURFACE ( 'NONE', #70, 15.00000000000000000 ) ;
#3 = VERTEX_POINT ( 'NONE', #311 ) ;
#4 = APPROVAL_ROLE ( '' ) ;
#5 = EDGE_CURVE ( 'NONE', #48, #297, #151, .T. ) ;
#6 = UNCERTAINTY_MEASURE_WITH_UNIT (LENGTH_MEASURE( 1.000000000000000082E-05 ), #321, 'distance_accuracy_value', 'NONE');
#7 = DIRECTION ( 'NONE',  ( 0.000000000000000000, 1.000000000000000000, 0.000000000000000000 ) ) ;
#8 = ORIENTED_EDGE ( 'NONE', *, *, #174, .T. ) ;
#9 = CARTESIAN_POINT ( 'NONE',  ( 0.000000000000000000, 28.54032173851798504, 0.000000000000000000 ) ) ;
#10 = ADVANCED_FACE ( 'NONE', ( #159 ), #2, .T. ) ;
#11 = ORIENTED_EDGE ( 'NONE', *, *, #303, .T. ) ;
#12 = CARTESIAN_POINT ( 'NONE',  ( 0.000000000000000000, 28.54032173851798504, 0.000000000000000000 ) ) ;
#13 = CARTESIAN_POINT ( 'NONE',  ( 0.000000000000000000, 1.664109856705349388, -6.250000000000000000 ) ) ;
#14 = CIRCLE ( 'NONE', #27, 6.454431595223343088 ) ;
#15 = ADVANCED_FACE ( 'NONE', ( #307 ), #135, .F. ) ;
#16 = ORIENTED_EDGE ( 'NONE', *, *, #216, .F. ) ;
#17 = CC_DESIGN_PERSON_AND_ORGANIZATION_ASSIGNMENT ( #277, #202, ( #322 ) ) ;
#18 = FACE_OUTER_BOUND ( 'NONE', #68, .T. ) ;
#19 = VERTEX_POINT ( 'NONE', #73 ) ;
#20 = EDGE_LOOP ( 'NONE', ( #172, #74, #102, #266, #247, #228 ) ) ;
#21 = APPROVAL_ROLE ( '' ) ;
#22 = DIRECTION ( 'NONE',  ( 0.000000000000000000, 0.000000000000000000, -1.000000000000000000 ) ) ;
#23 = COORDINATED_UNIVERSAL_TIME_OFFSET ( 1, 0, .AHEAD. ) ;
#24 = VECTOR ( 'NONE', #36, 1000.000000000000000 ) ;
#25 = CARTESIAN_POINT ( 'NONE',  ( 7.654042494670957606E-16, 1.664109856705349388, 6.250000000000000000 ) ) ;
#26 = PERSON_AND_ORGANIZATION_ROLE ( 'creator' ) ;
#27 = AXIS2_PLACEMENT_3D ( 'NONE', #122, #117, #293 ) ;
#28 = CARTESIAN_POINT ( 'NONE',  ( 6.454431595223343088, 28.54032173851798504, -7.904398993405810125E-16 ) ) ;
#29 = CALENDAR_DATE ( 2025, 30, 5 ) ;
#30 = CARTESIAN_POINT ( 'NONE',  ( 0.000000000000000000, 1.459678261482013850, 0.000000000000000000 ) ) ;
#31 = AXIS2_PLACEMENT_3D ( 'NONE', #109, #7, #255 ) ;
#32 = CARTESIAN_POINT ( 'NONE',  ( 0.000000000000000000, 1.459678261482015627, 0.000000000000000000 ) ) ;
#33 = DIRECTION ( 'NONE',  ( -1.000000000000000000, 0.000000000000000000, 1.224646799147352961E-16 ) ) ;
#34 = APPROVAL_PERSON_ORGANIZATION ( #158, #66, #21 ) ;
#35 = DIRECTION ( 'NONE',  ( 0.000000000000000000, 0.000000000000000000, 1.000000000000000000 ) ) ;
#36 = DIRECTION ( 'NONE',  ( 8.659560562355024070E-17, -0.7071067811865400232, 0.7071067811865550112 ) ) ;
#37 = ORIENTED_EDGE ( 'NONE', *, *, #106, .T. ) ;
#38 = DIRECTION ( 'NONE',  ( 0.000000000000000000, 0.000000000000000000, 1.000000000000000000 ) ) ;
#39 = AXIS2_PLACEMENT_3D ( 'NONE', #223, #248, #67 ) ;
#40 = APPROVAL ( #55, 'NEURÈENÝ' ) ;
#41 = CIRCLE ( 'NONE', #88, 6.250000000000000000 ) ;
#42 = ORIENTED_EDGE ( 'NONE', *, *, #93, .F. ) ;
#43 = ADVANCED_FACE ( 'NONE', ( #175 ), #61, .F. ) ;
#44 = CONICAL_SURFACE ( 'NONE', #299, 6.454431595223342200, 0.7853981633974419507 ) ;
#45 = APPLICATION_PROTOCOL_DEFINITION ( 'international standard', 'config_control_design', 1994, #268 ) ;
#46 = APPROVAL_PERSON_ORGANIZATION ( #224, #272, #4 ) ;
#47 = ORIENTED_EDGE ( 'NONE', *, *, #132, .F. ) ;
#48 = VERTEX_POINT ( 'NONE', #209 ) ;
#49 = DIRECTION ( 'NONE',  ( 0.000000000000000000, 0.000000000000000000, 1.000000000000000000 ) ) ;
#50 = ORIENTED_EDGE ( 'NONE', *, *, #106, .F. ) ;
#51 = CYLINDRICAL_SURFACE ( 'NONE', #326, 6.250000000000000000 ) ;
#52 = ORIENTED_EDGE ( 'NONE', *, *, #155, .F. ) ;
#53 = SECURITY_CLASSIFICATION_LEVEL ( 'unclassified' ) ;
#54 = VERTEX_POINT ( 'NONE', #25 ) ;
#55 = APPROVAL_STATUS ( 'not_yet_approved' ) ;
#56 = CIRCLE ( 'NONE', #31, 6.454431595223341311 ) ;
#57 = DIRECTION ( 'NONE',  ( 0.000000000000000000, 0.000000000000000000, -1.000000000000000000 ) ) ;
#58 = CC_DESIGN_PERSON_AND_ORGANIZATION_ASSIGNMENT ( #178, #78, ( #322 ) ) ;
#59 = VECTOR ( 'NONE', #291, 1000.000000000000000 ) ;
#60 = CARTESIAN_POINT ( 'NONE',  ( 0.000000000000000000, 1.664109856705349388, 0.000000000000000000 ) ) ;
#61 = CONICAL_SURFACE ( 'NONE', #107, 6.454431595223340423, 0.7853981633974589371 ) ;
#62 = LINE ( 'NONE', #211, #227 ) ;
#63 = LINE ( 'NONE', #89, #282 ) ;
#64 = CARTESIAN_POINT ( 'NONE',  ( 0.000000000000000000, 28.54032173851798504, 0.000000000000000000 ) ) ;
#65 = DIRECTION ( 'NONE',  ( 0.000000000000000000, -0.7071067811865400232, -0.7071067811865550112 ) ) ;
#66 = APPROVAL ( #308, 'NEURÈENÝ' ) ;
#67 = DIRECTION ( 'NONE',  ( 0.000000000000000000, 0.000000000000000000, -1.000000000000000000 ) ) ;
#68 = EDGE_LOOP ( 'NONE', ( #236, #156, #271, #100 ) ) ;
#69 = EDGE_CURVE ( 'NONE', #327, #245, #150, .T. ) ;
#70 = AXIS2_PLACEMENT_3D ( 'NONE', #80, #309, #234 ) ;
#71 = MECHANICAL_CONTEXT ( 'NONE', #268, 'mechanical' ) ;
#72 = VERTEX_POINT ( 'NONE', #113 ) ;
#73 = CARTESIAN_POINT ( 'NONE',  ( 0.000000000000000000, 28.54032173851798504, 6.454431595223342200 ) ) ;
#74 = ORIENTED_EDGE ( 'NONE', *, *, #77, .T. ) ;
#75 = ORIENTED_EDGE ( 'NONE', *, *, #141, .F. ) ;
#76 = AXIS2_PLACEMENT_3D ( 'NONE', #30, #139, #38 ) ;
#77 = EDGE_CURVE ( 'NONE', #198, #128, #140, .T. ) ;
#78 = PERSON_AND_ORGANIZATION_ROLE ( 'design_supplier' ) ;
#79 = PRODUCT_DEFINITION_SHAPE ( 'NONE', 'NONE',  #290 ) ;
#80 = CARTESIAN_POINT ( 'NONE',  ( 0.000000000000000000, 15.00000000000000000, 0.000000000000000000 ) ) ;
#81 = PERSON_AND_ORGANIZATION ( #123, #153 ) ;
#82 = CC_DESIGN_DATE_AND_TIME_ASSIGNMENT ( #310, #232, ( #290 ) ) ;
#83 = ORIENTED_EDGE ( 'NONE', *, *, #195, .F. ) ;
#84 = APPROVAL_DATE_TIME ( #230, #40 ) ;
#85 = CARTESIAN_POINT ( 'NONE',  ( 7.904398993405811111E-16, 28.54032173851798504, -6.454431595223342200 ) ) ;
#86 = APPROVAL_STATUS ( 'not_yet_approved' ) ;
#87 = DIRECTION ( 'NONE',  ( -1.000000000000000000, -2.312964634635742957E-16, 0.000000000000000000 ) ) ;
#88 = AXIS2_PLACEMENT_3D ( 'NONE', #210, #313, #192 ) ;
#89 = CARTESIAN_POINT ( 'NONE',  ( 7.654042494670957606E-16, 50.00000000000000000, 6.250000000000000000 ) ) ;
#90 = CIRCLE ( 'NONE', #254, 6.454431595223341311 ) ;
#91 = DIRECTION ( 'NONE',  ( 0.000000000000000000, -1.000000000000000000, 0.000000000000000000 ) ) ;
#92 = LOCAL_TIME ( 12, 3, 51.00000000000000000, #328 ) ;
#93 = EDGE_CURVE ( 'NONE', #200, #54, #320, .T. ) ;
#94 = CARTESIAN_POINT ( 'NONE',  ( 0.000000000000000000, 15.00000000000000000, 0.000000000000000000 ) ) ;
#95 = AXIS2_PLACEMENT_3D ( 'NONE', #285, #164, #258 ) ;
#96 = CC_DESIGN_APPROVAL ( #66, ( #322 ) ) ;
#97 = LINE ( 'NONE', #265, #103 ) ;
#98 = EDGE_LOOP ( 'NONE', ( #126, #152, #11, #142, #105, #37 ) ) ;
#99 =( NAMED_UNIT ( * ) PLANE_ANGLE_UNIT ( ) SI_UNIT ( $, .RADIAN. ) );
#100 = ORIENTED_EDGE ( 'NONE', *, *, #93, .T. ) ;
#101 = CIRCLE ( 'NONE', #148, 15.00000000000000000 ) ;
#102 = ORIENTED_EDGE ( 'NONE', *, *, #184, .T. ) ;
#103 = VECTOR ( 'NONE', #127, 999.9999999999998863 ) ;
#104 = DIRECTION ( 'NONE',  ( 0.000000000000000000, -1.000000000000000000, 0.000000000000000000 ) ) ;
#105 = ORIENTED_EDGE ( 'NONE', *, *, #278, .T. ) ;
#106 = EDGE_CURVE ( 'NONE', #3, #72, #177, .T. ) ;
#107 = AXIS2_PLACEMENT_3D ( 'NONE', #32, #179, #196 ) ;
#108 = DATE_AND_TIME ( #279, #92 ) ;
#109 = CARTESIAN_POINT ( 'NONE',  ( 0.000000000000000000, 1.459678261482013850, 0.000000000000000000 ) ) ;
#110 = DATE_TIME_ROLE ( 'classification_date' ) ;
#111 = EDGE_CURVE ( 'NONE', #203, #245, #56, .T. ) ;
#112 = LOCAL_TIME ( 12, 3, 51.00000000000000000, #136 ) ;
#113 = CARTESIAN_POINT ( 'NONE',  ( 6.454431595223342200, 1.459678261482013850, -7.904398993405810125E-16 ) ) ;
#114 = CALENDAR_DATE ( 2025, 30, 5 ) ;
#115 = CARTESIAN_POINT ( 'NONE',  ( 0.000000000000000000, 50.00000000000000000, 0.000000000000000000 ) ) ;
#116 = CARTESIAN_POINT ( 'NONE',  ( 7.904398993405809139E-16, 1.459678261482015627, 6.454431595223340423 ) ) ;
#117 = DIRECTION ( 'NONE',  ( 0.000000000000000000, -1.000000000000000000, 0.000000000000000000 ) ) ;
#118 = ORIENTED_EDGE ( 'NONE', *, *, #111, .F. ) ;
#119 = LINE ( 'NONE', #116, #24 ) ;
#120 = CC_DESIGN_PERSON_AND_ORGANIZATION_ASSIGNMENT ( #256, #251, ( #1 ) ) ;
#121 = AXIS2_PLACEMENT_3D ( 'NONE', #287, #146, #262 ) ;
#122 = CARTESIAN_POINT ( 'NONE',  ( 0.000000000000000000, 28.54032173851798504, 0.000000000000000000 ) ) ;
#123 = PERSON ( 'NEURÈENÝ', 'NEURÈENÝ', 'NEURÈENÝ', ('NEURÈENÝ'), ('NEURÈENÝ'), ('NEURÈENÝ') ) ;
#124 = AXIS2_PLACEMENT_3D ( 'NONE', #270, #206, #182 ) ;
#125 = CARTESIAN_POINT ( 'NONE',  ( 0.000000000000000000, 28.33589014329463751, -6.250000000000000000 ) ) ;
#126 = ORIENTED_EDGE ( 'NONE', *, *, #184, .F. ) ;
#127 = DIRECTION ( 'NONE',  ( 0.000000000000000000, 0.7071067811865520136, 0.7071067811865431318 ) ) ;
#128 = VERTEX_POINT ( 'NONE', #28 ) ;
#129 = CC_DESIGN_PERSON_AND_ORGANIZATION_ASSIGNMENT ( #81, #26, ( #290 ) ) ;
#130 = PERSON_AND_ORGANIZATION_ROLE ( 'design_owner' ) ;
#131 = CARTESIAN_POINT ( 'NONE',  ( 0.000000000000000000, 1.459678261482013850, 0.000000000000000000 ) ) ;
#132 = EDGE_CURVE ( 'NONE', #297, #198, #208, .T. ) ;
#133 = CONICAL_SURFACE ( 'NONE', #212, 6.454431595223342200, 0.7853981633974419507 ) ;
#134 = CALENDAR_DATE ( 2025, 30, 5 ) ;
#135 = CYLINDRICAL_SURFACE ( 'NONE', #201, 6.250000000000000000 ) ;
#136 = COORDINATED_UNIVERSAL_TIME_OFFSET ( 1, 0, .AHEAD. ) ;
#137 = ORIENTED_EDGE ( 'NONE', *, *, #195, .T. ) ;
#138 = DESIGN_CONTEXT ( 'detailed design', #220, 'design' ) ;
#139 = DIRECTION ( 'NONE',  ( 0.000000000000000000, 1.000000000000000000, 0.000000000000000000 ) ) ;
#140 = CIRCLE ( 'NONE', #124, 6.454431595223343088 ) ;
#141 = EDGE_CURVE ( 'NONE', #72, #203, #329, .T. ) ;
#142 = ORIENTED_EDGE ( 'NONE', *, *, #69, .T. ) ;
#143 = LOCAL_TIME ( 12, 3, 51.00000000000000000, #160 ) ;
#144 = CARTESIAN_POINT ( 'NONE',  ( 0.000000000000000000, 15.00000000000000000, 0.000000000000000000 ) ) ;
#145 = ORIENTED_EDGE ( 'NONE', *, *, #77, .F. ) ;
#146 = DIRECTION ( 'NONE',  ( -0.000000000000000000, 1.000000000000000000, -0.000000000000000000 ) ) ;
#147 = ADVANCED_FACE ( 'NONE', ( #238 ), #133, .F. ) ;
#148 = AXIS2_PLACEMENT_3D ( 'NONE', #94, #149, #33 ) ;
#149 = DIRECTION ( 'NONE',  ( -1.224646799147353207E-16, -2.249639673992786138E-32, -1.000000000000000000 ) ) ;
#150 = CIRCLE ( 'NONE', #95, 15.00000000000000000 ) ;
#151 = CIRCLE ( 'NONE', #330, 6.250000000000000000 ) ;
#152 = ORIENTED_EDGE ( 'NONE', *, *, #207, .T. ) ;
#153 = ORGANIZATION ( 'NEURÈENÝ', 'NEURÈENÝ', '' ) ;
#154 = EDGE_LOOP ( 'NONE', ( #52, #8, #296, #118, #16 ) ) ;
#155 = EDGE_CURVE ( 'NONE', #54, #200, #41, .T. ) ;
#156 = ORIENTED_EDGE ( 'NONE', *, *, #5, .T. ) ;
#157 = DIRECTION ( 'NONE',  ( 1.000000000000000000, 0.000000000000000000, 0.000000000000000000 ) ) ;
#158 = PERSON_AND_ORGANIZATION ( #123, #153 ) ;
#159 = FACE_OUTER_BOUND ( 'NONE', #20, .T. ) ;
#160 = COORDINATED_UNIVERSAL_TIME_OFFSET ( 1, 0, .AHEAD. ) ;
#161 = DIRECTION ( 'NONE',  ( 0.000000000000000000, 0.000000000000000000, 1.000000000000000000 ) ) ;
#162 = ORIENTED_EDGE ( 'NONE', *, *, #231, .F. ) ;
#163 = CC_DESIGN_DATE_AND_TIME_ASSIGNMENT ( #226, #110, ( #1 ) ) ;
#164 = DIRECTION ( 'NONE',  ( 0.000000000000000000, 0.000000000000000000, 1.000000000000000000 ) ) ;
#165 = DIRECTION ( 'NONE',  ( 0.000000000000000000, -1.000000000000000000, 0.000000000000000000 ) ) ;
#166 = APPROVAL_PERSON_ORGANIZATION ( #205, #40, #281 ) ;
#167 = ADVANCED_FACE ( 'NONE', ( #235 ), #190, .T. ) ;
#168 = LINE ( 'NONE', #261, #59 ) ;
#169 = DIRECTION ( 'NONE',  ( -0.000000000000000000, 1.000000000000000000, -0.000000000000000000 ) ) ;
#170 = DIRECTION ( 'NONE',  ( -0.000000000000000000, -1.000000000000000000, -0.000000000000000000 ) ) ;
#171 = ORIENTED_EDGE ( 'NONE', *, *, #242, .F. ) ;
#172 = ORIENTED_EDGE ( 'NONE', *, *, #231, .T. ) ;
#173 = CIRCLE ( 'NONE', #121, 6.250000000000000000 ) ;
#174 = EDGE_CURVE ( 'NONE', #54, #3, #119, .T. ) ;
#175 = FACE_OUTER_BOUND ( 'NONE', #154, .T. ) ;
#176 = ORIENTED_EDGE ( 'NONE', *, *, #174, .F. ) ;
#177 = CIRCLE ( 'NONE', #295, 6.454431595223341311 ) ;
#178 = PERSON_AND_ORGANIZATION ( #123, #153 ) ;
#179 = DIRECTION ( 'NONE',  ( -0.000000000000000000, -1.000000000000000000, -0.000000000000000000 ) ) ;
#180 = APPROVAL_DATE_TIME ( #108, #66 ) ;
#181 = PRODUCT ( 'A_0224-3012', 'A_0224-3012', '', ( #71 ) ) ;
#182 = DIRECTION ( 'NONE',  ( 0.000000000000000000, 0.000000000000000000, -1.000000000000000000 ) ) ;
#183 = SHAPE_DEFINITION_REPRESENTATION ( #79, #276 ) ;
#184 = EDGE_CURVE ( 'NONE', #128, #72, #101, .T. ) ;
#185 = CIRCLE ( 'NONE', #39, 6.454431595223343088 ) ;
#186 = PERSON_AND_ORGANIZATION ( #123, #153 ) ;
#187 = DIRECTION ( 'NONE',  ( 0.000000000000000000, -1.000000000000000000, 0.000000000000000000 ) ) ;
#188 = FACE_OUTER_BOUND ( 'NONE', #325, .T. ) ;
#189 = ADVANCED_FACE ( 'NONE', ( #188 ), #44, .F. ) ;
#190 = SPHERICAL_SURFACE ( 'NONE', #315, 15.00000000000000000 ) ;
#191 = DIRECTION ( 'NONE',  ( -0.000000000000000000, 1.000000000000000000, -0.000000000000000000 ) ) ;
#192 = DIRECTION ( 'NONE',  ( 0.000000000000000000, 0.000000000000000000, -1.000000000000000000 ) ) ;
#193 = ORIENTED_EDGE ( 'NONE', *, *, #207, .F. ) ;
#194 = ORIENTED_EDGE ( 'NONE', *, *, #240, .T. ) ;
#195 = EDGE_CURVE ( 'NONE', #297, #48, #173, .T. ) ;
#196 = DIRECTION ( 'NONE',  ( 0.000000000000000000, 0.000000000000000000, -1.000000000000000000 ) ) ;
#197 = CARTESIAN_POINT ( 'NONE',  ( 0.000000000000000000, 0.000000000000000000, 0.000000000000000000 ) ) ;
#198 = VERTEX_POINT ( 'NONE', #215 ) ;
#199 = AXIS2_PLACEMENT_3D ( 'NONE', #264, #170, #317 ) ;
#200 = VERTEX_POINT ( 'NONE', #13 ) ;
#201 = AXIS2_PLACEMENT_3D ( 'NONE', #115, #187, #22 ) ;
#202 = PERSON_AND_ORGANIZATION_ROLE ( 'creator' ) ;
#203 = VERTEX_POINT ( 'NONE', #259 ) ;
#204 = CC_DESIGN_APPROVAL ( #40, ( #1 ) ) ;
#205 = PERSON_AND_ORGANIZATION ( #123, #153 ) ;
#206 = DIRECTION ( 'NONE',  ( 0.000000000000000000, -1.000000000000000000, 0.000000000000000000 ) ) ;
#207 = EDGE_CURVE ( 'NONE', #128, #19, #14, .T. ) ;
#208 = LINE ( 'NONE', #85, #237 ) ;
#209 = CARTESIAN_POINT ( 'NONE',  ( 7.654042494670957606E-16, 28.33589014329463751, 6.250000000000000000 ) ) ;
#210 = CARTESIAN_POINT ( 'NONE',  ( 0.000000000000000000, 1.664109856705349388, 0.000000000000000000 ) ) ;
#211 = CARTESIAN_POINT ( 'NONE',  ( 0.000000000000000000, 1.459678261482015627, -6.454431595223340423 ) ) ;
#212 = AXIS2_PLACEMENT_3D ( 'NONE', #12, #191, #319 ) ;
#213 = DIRECTION ( 'NONE',  ( -0.000000000000000000, 0.000000000000000000, -1.000000000000000000 ) ) ;
#214 = CONICAL_SURFACE ( 'NONE', #199, 6.454431595223340423, 0.7853981633974589371 ) ;
#215 = CARTESIAN_POINT ( 'NONE',  ( 7.904398993405811111E-16, 28.54032173851798504, -6.454431595223342200 ) ) ;
#216 = EDGE_CURVE ( 'NONE', #200, #203, #62, .T. ) ;
#217 = EDGE_LOOP ( 'NONE', ( #83, #244, #162, #294, #222 ) ) ;
#218 = CC_DESIGN_SECURITY_CLASSIFICATION ( #1, ( #322 ) ) ;
#219 = ADVANCED_FACE ( 'NONE', ( #289 ), #214, .F. ) ;
#220 = APPLICATION_CONTEXT ( 'configuration controlled 3d designs of mechanical parts and assemblies' ) ;
#221 = CARTESIAN_POINT ( 'NONE',  ( -6.454431595223341311, 1.459678261482013850, 0.000000000000000000 ) ) ;
#222 = ORIENTED_EDGE ( 'NONE', *, *, #263, .F. ) ;
#223 = CARTESIAN_POINT ( 'NONE',  ( 0.000000000000000000, 28.54032173851798504, 0.000000000000000000 ) ) ;
#224 = PERSON_AND_ORGANIZATION ( #123, #153 ) ;
#225 = DIRECTION ( 'NONE',  ( 0.000000000000000000, 1.000000000000000000, 0.000000000000000000 ) ) ;
#226 = DATE_AND_TIME ( #134, #229 ) ;
#227 = VECTOR ( 'NONE', #65, 1000.000000000000000 ) ;
#228 = ORIENTED_EDGE ( 'NONE', *, *, #69, .F. ) ;
#229 = LOCAL_TIME ( 12, 3, 51.00000000000000000, #23 ) ;
#230 = DATE_AND_TIME ( #29, #143 ) ;
#231 = EDGE_CURVE ( 'NONE', #327, #198, #239, .T. ) ;
#232 = DATE_TIME_ROLE ( 'creation_date' ) ;
#233 = CARTESIAN_POINT ( 'NONE',  ( 0.000000000000000000, 28.33589014329463751, 0.000000000000000000 ) ) ;
#234 = DIRECTION ( 'NONE',  ( -1.000000000000000000, -2.312964634635742957E-16, 0.000000000000000000 ) ) ;
#235 = FACE_OUTER_BOUND ( 'NONE', #98, .T. ) ;
#236 = ORIENTED_EDGE ( 'NONE', *, *, #240, .F. ) ;
#237 = VECTOR ( 'NONE', #257, 999.9999999999998863 ) ;
#238 = FACE_OUTER_BOUND ( 'NONE', #217, .T. ) ;
#239 = CIRCLE ( 'NONE', #318, 6.454431595223343088 ) ;
#240 = EDGE_CURVE ( 'NONE', #48, #54, #63, .T. ) ;
#241 = AXIS2_PLACEMENT_3D ( 'NONE', #60, #280, #57 ) ;
#242 = EDGE_CURVE ( 'NONE', #297, #200, #168, .T. ) ;
#243 = CARTESIAN_POINT ( 'NONE',  ( -6.454431595223342200, 28.54032173851798504, 0.000000000000000000 ) ) ;
#244 = ORIENTED_EDGE ( 'NONE', *, *, #132, .T. ) ;
#245 = VERTEX_POINT ( 'NONE', #221 ) ;
#246 = DIRECTION ( 'NONE',  ( 0.000000000000000000, 1.000000000000000000, 0.000000000000000000 ) ) ;
#247 = ORIENTED_EDGE ( 'NONE', *, *, #111, .T. ) ;
#248 = DIRECTION ( 'NONE',  ( 0.000000000000000000, -1.000000000000000000, 0.000000000000000000 ) ) ;
#249 = DIRECTION ( 'NONE',  ( 0.000000000000000000, 0.000000000000000000, -1.000000000000000000 ) ) ;
#250 = DIRECTION ( 'NONE',  ( 0.000000000000000000, 0.000000000000000000, 1.000000000000000000 ) ) ;
#251 = PERSON_AND_ORGANIZATION_ROLE ( 'classification_officer' ) ;
#252 = ORIENTED_EDGE ( 'NONE', *, *, #216, .T. ) ;
#253 = DATE_AND_TIME ( #306, #269 ) ;
#254 = AXIS2_PLACEMENT_3D ( 'NONE', #274, #246, #49 ) ;
#255 = DIRECTION ( 'NONE',  ( 0.000000000000000000, 0.000000000000000000, 1.000000000000000000 ) ) ;
#256 = PERSON_AND_ORGANIZATION ( #123, #153 ) ;
#257 = DIRECTION ( 'NONE',  ( 8.659560562354877391E-17, 0.7071067811865520136, -0.7071067811865431318 ) ) ;
#258 = DIRECTION ( 'NONE',  ( 1.000000000000000000, 0.000000000000000000, 0.000000000000000000 ) ) ;
#259 = CARTESIAN_POINT ( 'NONE',  ( 0.000000000000000000, 1.459678261482013850, -6.454431595223342200 ) ) ;
#260 =( GEOMETRIC_REPRESENTATION_CONTEXT ( 3 ) GLOBAL_UNCERTAINTY_ASSIGNED_CONTEXT ( ( #6 ) ) GLOBAL_UNIT_ASSIGNED_CONTEXT ( ( #321, #99, #267 ) ) REPRESENTATION_CONTEXT ( 'NONE', 'WORKASPACE' ) );
#261 = CARTESIAN_POINT ( 'NONE',  ( 0.000000000000000000, 50.00000000000000000, -6.250000000000000000 ) ) ;
#262 = DIRECTION ( 'NONE',  ( 0.000000000000000000, 0.000000000000000000, 1.000000000000000000 ) ) ;
#263 = EDGE_CURVE ( 'NONE', #48, #19, #97, .T. ) ;
#264 = CARTESIAN_POINT ( 'NONE',  ( 0.000000000000000000, 1.459678261482015627, 0.000000000000000000 ) ) ;
#265 = CARTESIAN_POINT ( 'NONE',  ( 0.000000000000000000, 28.54032173851798504, 6.454431595223342200 ) ) ;
#266 = ORIENTED_EDGE ( 'NONE', *, *, #141, .T. ) ;
#267 =( NAMED_UNIT ( * ) SI_UNIT ( $, .STERADIAN. ) SOLID_ANGLE_UNIT ( ) );
#268 = APPLICATION_CONTEXT ( 'configuration controlled 3d designs of mechanical parts and assemblies' ) ;
#269 = LOCAL_TIME ( 12, 3, 51.00000000000000000, #284 ) ;
#270 = CARTESIAN_POINT ( 'NONE',  ( 0.000000000000000000, 28.54032173851798504, 0.000000000000000000 ) ) ;
#271 = ORIENTED_EDGE ( 'NONE', *, *, #242, .T. ) ;
#272 = APPROVAL ( #86, 'NEURÈENÝ' ) ;
#273 = ORIENTED_EDGE ( 'NONE', *, *, #155, .T. ) ;
#274 = CARTESIAN_POINT ( 'NONE',  ( 0.000000000000000000, 1.459678261482013850, 0.000000000000000000 ) ) ;
#275 = AXIS2_PLACEMENT_3D ( 'NONE', #197, #298, #157 ) ;
#276 = ADVANCED_BREP_SHAPE_REPRESENTATION ( 'A_0224-3012', ( #292, #275 ), #260 ) ;
#277 = PERSON_AND_ORGANIZATION ( #123, #153 ) ;
#278 = EDGE_CURVE ( 'NONE', #245, #3, #90, .T. ) ;
#279 = CALENDAR_DATE ( 2025, 30, 5 ) ;
#280 = DIRECTION ( 'NONE',  ( -0.000000000000000000, -1.000000000000000000, -0.000000000000000000 ) ) ;
#281 = APPROVAL_ROLE ( '' ) ;
#282 = VECTOR ( 'NONE', #91, 1000.000000000000000 ) ;
#283 = DIRECTION ( 'NONE',  ( -0.000000000000000000, 1.000000000000000000, -0.000000000000000000 ) ) ;
#284 = COORDINATED_UNIVERSAL_TIME_OFFSET ( 1, 0, .AHEAD. ) ;
#285 = CARTESIAN_POINT ( 'NONE',  ( 0.000000000000000000, 15.00000000000000000, 0.000000000000000000 ) ) ;
#286 = ADVANCED_FACE ( 'NONE', ( #18 ), #51, .F. ) ;
#287 = CARTESIAN_POINT ( 'NONE',  ( 0.000000000000000000, 28.33589014329463751, 0.000000000000000000 ) ) ;
#288 = CLOSED_SHELL ( 'NONE', ( #43, #147, #15, #10, #167, #286, #189, #219 ) ) ;
#289 = FACE_OUTER_BOUND ( 'NONE', #305, .T. ) ;
#290 = PRODUCT_DEFINITION ( 'NEZNÁMÝ', '', #322, #138 ) ;
#291 = DIRECTION ( 'NONE',  ( 0.000000000000000000, -1.000000000000000000, 0.000000000000000000 ) ) ;
#292 = MANIFOLD_SOLID_BREP ( 'Zkosení1', #288 ) ;
#293 = DIRECTION ( 'NONE',  ( 0.000000000000000000, 0.000000000000000000, -1.000000000000000000 ) ) ;
#294 = ORIENTED_EDGE ( 'NONE', *, *, #303, .F. ) ;
#295 = AXIS2_PLACEMENT_3D ( 'NONE', #131, #225, #161 ) ;
#296 = ORIENTED_EDGE ( 'NONE', *, *, #278, .F. ) ;
#297 = VERTEX_POINT ( 'NONE', #125 ) ;
#298 = DIRECTION ( 'NONE',  ( 0.000000000000000000, 0.000000000000000000, 1.000000000000000000 ) ) ;
#299 = AXIS2_PLACEMENT_3D ( 'NONE', #9, #169, #35 ) ;
#300 = EDGE_LOOP ( 'NONE', ( #137, #194, #273, #171 ) ) ;
#301 = ORIENTED_EDGE ( 'NONE', *, *, #263, .T. ) ;
#302 = APPROVAL_DATE_TIME ( #253, #272 ) ;
#303 = EDGE_CURVE ( 'NONE', #19, #327, #185, .T. ) ;
#304 = CC_DESIGN_APPROVAL ( #272, ( #290 ) ) ;
#305 = EDGE_LOOP ( 'NONE', ( #176, #42, #252, #75, #50 ) ) ;
#306 = CALENDAR_DATE ( 2025, 30, 5 ) ;
#307 = FACE_OUTER_BOUND ( 'NONE', #300, .T. ) ;
#308 = APPROVAL_STATUS ( 'not_yet_approved' ) ;
#309 = DIRECTION ( 'NONE',  ( -0.000000000000000000, 0.000000000000000000, -1.000000000000000000 ) ) ;
#310 = DATE_AND_TIME ( #114, #112 ) ;
#311 = CARTESIAN_POINT ( 'NONE',  ( 7.904398993405811111E-16, 1.459678261482013850, 6.454431595223342200 ) ) ;
#312 = PRODUCT_RELATED_PRODUCT_CATEGORY ( 'detail', '', ( #181 ) ) ;
#313 = DIRECTION ( 'NONE',  ( -0.000000000000000000, -1.000000000000000000, -0.000000000000000000 ) ) ;
#314 = DIRECTION ( 'NONE',  ( 0.000000000000000000, 0.000000000000000000, -1.000000000000000000 ) ) ;
#315 = AXIS2_PLACEMENT_3D ( 'NONE', #144, #213, #87 ) ;
#316 = CC_DESIGN_PERSON_AND_ORGANIZATION_ASSIGNMENT ( #186, #130, ( #181 ) ) ;
#317 = DIRECTION ( 'NONE',  ( 0.000000000000000000, 0.000000000000000000, -1.000000000000000000 ) ) ;
#318 = AXIS2_PLACEMENT_3D ( 'NONE', #64, #165, #314 ) ;
#319 = DIRECTION ( 'NONE',  ( 0.000000000000000000, 0.000000000000000000, 1.000000000000000000 ) ) ;
#320 = CIRCLE ( 'NONE', #241, 6.250000000000000000 ) ;
#321 =( LENGTH_UNIT ( ) NAMED_UNIT ( * ) SI_UNIT ( .MILLI., .METRE. ) );
#322 = PRODUCT_DEFINITION_FORMATION_WITH_SPECIFIED_SOURCE ( 'LIBOVOLNÝ', '', #181, .NOT_KNOWN. ) ;
#323 = ORIENTED_EDGE ( 'NONE', *, *, #5, .F. ) ;
#324 = CARTESIAN_POINT ( 'NONE',  ( 0.000000000000000000, 50.00000000000000000, 0.000000000000000000 ) ) ;
#325 = EDGE_LOOP ( 'NONE', ( #47, #323, #301, #193, #145 ) ) ;
#326 = AXIS2_PLACEMENT_3D ( 'NONE', #324, #104, #249 ) ;
#327 = VERTEX_POINT ( 'NONE', #243 ) ;
#328 = COORDINATED_UNIVERSAL_TIME_OFFSET ( 1, 0, .AHEAD. ) ;
#329 = CIRCLE ( 'NONE', #76, 6.454431595223341311 ) ;
#330 = AXIS2_PLACEMENT_3D ( 'NONE', #233, #283, #250 ) ;
#331 = APPLICATION_PROTOCOL_DEFINITION ( 'international standard', 'config_control_design', 1994, #220 ) ;
ENDSEC;
END-ISO-10303-21;
