ISO-10303-21;
HEADER;
FILE_DESCRIPTION (( 'STEP AP203' ),
    '1' );
FILE_NAME ('A_42,4x2-6000.STEP',
    '2019-11-07T12:48:30',
    ( '' ),
    ( '' ),
    'SwSTEP 2.0',
    'SolidWorks 2019',
    '' );
FILE_SCHEMA (( 'CONFIG_CONTROL_DESIGN' ));
ENDSEC;

DATA;
#1 = CARTESIAN_POINT ( 'NONE',  ( 0.0000000000000000000, 0.0000000000000000000, 6000.000000000000000 ) ) ;
#2 = CARTESIAN_POINT ( 'NONE',  ( 19.20000000000000284, 2.351321854362918079E-15, 6000.000000000000000 ) ) ;
#3 = FACE_OUTER_BOUND ( 'NONE', #20, .T. ) ;
#4 =( NAMED_UNIT ( * ) PLANE_ANGLE_UNIT ( ) SI_UNIT ( $, .RADIAN. ) );
#5 = APPLICATION_CONTEXT ( 'configuration controlled 3d designs of mechanical parts and assemblies' ) ;
#6 = EDGE_CURVE ( 'NONE', #246, #185, #124, .T. ) ;
#7 = COORDINATED_UNIVERSAL_TIME_OFFSET ( 1, 0, .AHEAD. ) ;
#8 = APPROVAL_DATE_TIME ( #220, #188 ) ;
#9 = ORIENTED_EDGE ( 'NONE', *, *, #140, .F. ) ;
#10 = PERSON_AND_ORGANIZATION ( #241, #242 ) ;
#11 = DIRECTION ( 'NONE',  ( 1.000000000000000000, 0.0000000000000000000, 0.0000000000000000000 ) ) ;
#12 =( GEOMETRIC_REPRESENTATION_CONTEXT ( 3 ) GLOBAL_UNCERTAINTY_ASSIGNED_CONTEXT ( ( #172 ) ) GLOBAL_UNIT_ASSIGNED_CONTEXT ( ( #39, #4, #57 ) ) REPRESENTATION_CONTEXT ( 'NONE', 'WORKASPACE' ) );
#13 = CARTESIAN_POINT ( 'NONE',  ( 0.0000000000000000000, 0.0000000000000000000, 6000.000000000000000 ) ) ;
#14 = CARTESIAN_POINT ( 'NONE',  ( -19.20000000000000284, 0.0000000000000000000, 6000.000000000000000 ) ) ;
#15 = CIRCLE ( 'NONE', #149, 21.20000000000000284 ) ;
#16 = ADVANCED_FACE ( 'NONE', ( #127 ), #17, .F. ) ;
#17 = CYLINDRICAL_SURFACE ( 'NONE', #99, 19.20000000000000284 ) ;
#18 = LOCAL_TIME ( 13, 48, 30.00000000000000000, #118 ) ;
#19 = EDGE_LOOP ( 'NONE', ( #73, #48 ) ) ;
#20 = EDGE_LOOP ( 'NONE', ( #187, #160 ) ) ;
#21 = CC_DESIGN_PERSON_AND_ORGANIZATION_ASSIGNMENT ( #237, #135, ( #155 ) ) ;
#22 = APPLICATION_PROTOCOL_DEFINITION ( 'international standard', 'config_control_design', 1994, #5 ) ;
#23 = CARTESIAN_POINT ( 'NONE',  ( 0.0000000000000000000, 0.0000000000000000000, 0.0000000000000000000 ) ) ;
#24 = CARTESIAN_POINT ( 'NONE',  ( 0.0000000000000000000, 0.0000000000000000000, 0.0000000000000000000 ) ) ;
#25 = CALENDAR_DATE ( 2019, 7, 11 ) ;
#26 = APPROVAL_STATUS ( 'not_yet_approved' ) ;
#27 = COORDINATED_UNIVERSAL_TIME_OFFSET ( 1, 0, .AHEAD. ) ;
#28 = ORIENTED_EDGE ( 'NONE', *, *, #49, .T. ) ;
#29 = CALENDAR_DATE ( 2019, 7, 11 ) ;
#30 = ORIENTED_EDGE ( 'NONE', *, *, #196, .F. ) ;
#31 = ORIENTED_EDGE ( 'NONE', *, *, #217, .F. ) ;
#32 = CC_DESIGN_PERSON_AND_ORGANIZATION_ASSIGNMENT ( #62, #158, ( #79 ) ) ;
#33 = DIRECTION ( 'NONE',  ( -0.0000000000000000000, -0.0000000000000000000, -1.000000000000000000 ) ) ;
#34 = ORIENTED_EDGE ( 'NONE', *, *, #40, .F. ) ;
#35 = ORIENTED_EDGE ( 'NONE', *, *, #101, .F. ) ;
#36 = EDGE_CURVE ( 'NONE', #185, #225, #207, .T. ) ;
#37 = PLANE ( 'NONE',  #44 ) ;
#38 = CARTESIAN_POINT ( 'NONE',  ( 0.0000000000000000000, 0.0000000000000000000, 6000.000000000000000 ) ) ;
#39 =( LENGTH_UNIT ( ) NAMED_UNIT ( * ) SI_UNIT ( .MILLI., .METRE. ) );
#40 = EDGE_CURVE ( 'NONE', #66, #143, #54, .T. ) ;
#41 = LINE ( 'NONE', #81, #128 ) ;
#42 = DIRECTION ( 'NONE',  ( 1.000000000000000000, 0.0000000000000000000, 0.0000000000000000000 ) ) ;
#43 = AXIS2_PLACEMENT_3D ( 'NONE', #97, #216, #11 ) ;
#44 = AXIS2_PLACEMENT_3D ( 'NONE', #1, #234, #98 ) ;
#45 = CC_DESIGN_APPROVAL ( #131, ( #155 ) ) ;
#46 = CALENDAR_DATE ( 2019, 7, 11 ) ;
#47 = CARTESIAN_POINT ( 'NONE',  ( -21.20000000000000284, 0.0000000000000000000, 6000.000000000000000 ) ) ;
#48 = ORIENTED_EDGE ( 'NONE', *, *, #196, .T. ) ;
#49 = EDGE_CURVE ( 'NONE', #51, #225, #159, .T. ) ;
#50 = LOCAL_TIME ( 13, 48, 30.00000000000000000, #65 ) ;
#51 = VERTEX_POINT ( 'NONE', #184 ) ;
#52 = PRODUCT_DEFINITION_SHAPE ( 'NONE', 'NONE',  #79 ) ;
#53 = EDGE_LOOP ( 'NONE', ( #74, #200 ) ) ;
#54 = CIRCLE ( 'NONE', #83, 19.20000000000000284 ) ;
#55 = FACE_OUTER_BOUND ( 'NONE', #70, .T. ) ;
#56 = PRODUCT ( 'A_42,4x2-6000', 'A_42,4x2-6000', '', ( #204 ) ) ;
#57 =( NAMED_UNIT ( * ) SI_UNIT ( $, .STERADIAN. ) SOLID_ANGLE_UNIT ( ) );
#58 = APPROVAL ( #199, 'NEURÈENÝ' ) ;
#59 = LINE ( 'NONE', #133, #119 ) ;
#60 = DIRECTION ( 'NONE',  ( 1.000000000000000000, 0.0000000000000000000, 0.0000000000000000000 ) ) ;
#61 = ADVANCED_FACE ( 'NONE', ( #55 ), #123, .T. ) ;
#62 = PERSON_AND_ORGANIZATION ( #241, #242 ) ;
#63 = PERSON_AND_ORGANIZATION ( #241, #242 ) ;
#64 = LOCAL_TIME ( 13, 48, 30.00000000000000000, #177 ) ;
#65 = COORDINATED_UNIVERSAL_TIME_OFFSET ( 1, 0, .AHEAD. ) ;
#66 = VERTEX_POINT ( 'NONE', #14 ) ;
#67 = ADVANCED_FACE ( 'NONE', ( #72 ), #91, .F. ) ;
#68 = PERSON_AND_ORGANIZATION_ROLE ( 'design_owner' ) ;
#69 = CC_DESIGN_PERSON_AND_ORGANIZATION_ASSIGNMENT ( #88, #68, ( #56 ) ) ;
#70 = EDGE_LOOP ( 'NONE', ( #144, #161, #28, #107 ) ) ;
#71 = VECTOR ( 'NONE', #223, 1000.000000000000000 ) ;
#72 = FACE_OUTER_BOUND ( 'NONE', #248, .T. ) ;
#73 = ORIENTED_EDGE ( 'NONE', *, *, #140, .T. ) ;
#74 = ORIENTED_EDGE ( 'NONE', *, *, #227, .T. ) ;
#75 = DIRECTION ( 'NONE',  ( 0.0000000000000000000, 0.0000000000000000000, 1.000000000000000000 ) ) ;
#76 = CC_DESIGN_SECURITY_CLASSIFICATION ( #89, ( #155 ) ) ;
#77 = FACE_OUTER_BOUND ( 'NONE', #109, .T. ) ;
#78 = FACE_OUTER_BOUND ( 'NONE', #53, .T. ) ;
#79 = PRODUCT_DEFINITION ( 'NEZNÁMÝ', '', #155, #212 ) ;
#80 = CARTESIAN_POINT ( 'NONE',  ( 0.0000000000000000000, 0.0000000000000000000, 0.0000000000000000000 ) ) ;
#81 = CARTESIAN_POINT ( 'NONE',  ( -19.20000000000000284, 0.0000000000000000000, 6000.000000000000000 ) ) ;
#82 = PERSON_AND_ORGANIZATION ( #241, #242 ) ;
#83 = AXIS2_PLACEMENT_3D ( 'NONE', #94, #208, #95 ) ;
#84 = DATE_AND_TIME ( #25, #18 ) ;
#85 = ORIENTED_EDGE ( 'NONE', *, *, #117, .T. ) ;
#86 = DATE_AND_TIME ( #219, #50 ) ;
#87 = CC_DESIGN_DATE_AND_TIME_ASSIGNMENT ( #120, #102, ( #79 ) ) ;
#88 = PERSON_AND_ORGANIZATION ( #241, #242 ) ;
#89 = SECURITY_CLASSIFICATION ( '', '', #239 ) ;
#90 = DIRECTION ( 'NONE',  ( -0.0000000000000000000, -0.0000000000000000000, -1.000000000000000000 ) ) ;
#91 = CYLINDRICAL_SURFACE ( 'NONE', #194, 19.20000000000000284 ) ;
#92 = AXIS2_PLACEMENT_3D ( 'NONE', #38, #195, #111 ) ;
#93 = AXIS2_PLACEMENT_3D ( 'NONE', #206, #247, #130 ) ;
#94 = CARTESIAN_POINT ( 'NONE',  ( 0.0000000000000000000, 0.0000000000000000000, 6000.000000000000000 ) ) ;
#95 = DIRECTION ( 'NONE',  ( 1.000000000000000000, 0.0000000000000000000, 0.0000000000000000000 ) ) ;
#96 = DIRECTION ( 'NONE',  ( 0.0000000000000000000, 0.0000000000000000000, 1.000000000000000000 ) ) ;
#97 = CARTESIAN_POINT ( 'NONE',  ( 0.0000000000000000000, 0.0000000000000000000, 0.0000000000000000000 ) ) ;
#98 = DIRECTION ( 'NONE',  ( 1.000000000000000000, 0.0000000000000000000, -0.0000000000000000000 ) ) ;
#99 = AXIS2_PLACEMENT_3D ( 'NONE', #249, #33, #145 ) ;
#100 = APPROVAL_ROLE ( '' ) ;
#101 = EDGE_CURVE ( 'NONE', #143, #66, #229, .T. ) ;
#102 = DATE_TIME_ROLE ( 'creation_date' ) ;
#103 = AXIS2_PLACEMENT_3D ( 'NONE', #24, #215, #42 ) ;
#104 = PERSON_AND_ORGANIZATION_ROLE ( 'classification_officer' ) ;
#105 = EDGE_CURVE ( 'NONE', #246, #51, #173, .T. ) ;
#106 = DIRECTION ( 'NONE',  ( -0.0000000000000000000, -0.0000000000000000000, -1.000000000000000000 ) ) ;
#107 = ORIENTED_EDGE ( 'NONE', *, *, #36, .F. ) ;
#108 = ORIENTED_EDGE ( 'NONE', *, *, #36, .T. ) ;
#109 = EDGE_LOOP ( 'NONE', ( #245, #129, #108, #85 ) ) ;
#110 = VERTEX_POINT ( 'NONE', #115 ) ;
#111 = DIRECTION ( 'NONE',  ( -1.000000000000000000, 0.0000000000000000000, 0.0000000000000000000 ) ) ;
#112 = ADVANCED_FACE ( 'NONE', ( #78, #214 ), #37, .T. ) ;
#113 = DIRECTION ( 'NONE',  ( 1.000000000000000000, 0.0000000000000000000, 0.0000000000000000000 ) ) ;
#114 = VECTOR ( 'NONE', #150, 1000.000000000000000 ) ;
#115 = CARTESIAN_POINT ( 'NONE',  ( -19.20000000000000284, 0.0000000000000000000, 0.0000000000000000000 ) ) ;
#116 = APPLICATION_PROTOCOL_DEFINITION ( 'international standard', 'config_control_design', 1994, #153 ) ;
#117 = EDGE_CURVE ( 'NONE', #225, #51, #181, .T. ) ;
#118 = COORDINATED_UNIVERSAL_TIME_OFFSET ( 1, 0, .AHEAD. ) ;
#119 = VECTOR ( 'NONE', #231, 1000.000000000000000 ) ;
#120 = DATE_AND_TIME ( #29, #64 ) ;
#121 = CC_DESIGN_APPROVAL ( #188, ( #79 ) ) ;
#122 = CALENDAR_DATE ( 2019, 7, 11 ) ;
#123 = CYLINDRICAL_SURFACE ( 'NONE', #202, 21.20000000000000284 ) ;
#124 = CIRCLE ( 'NONE', #176, 21.20000000000000284 ) ;
#125 = ORIENTED_EDGE ( 'NONE', *, *, #244, .T. ) ;
#126 = ORIENTED_EDGE ( 'NONE', *, *, #101, .T. ) ;
#127 = FACE_OUTER_BOUND ( 'NONE', #226, .T. ) ;
#128 = VECTOR ( 'NONE', #132, 1000.000000000000000 ) ;
#129 = ORIENTED_EDGE ( 'NONE', *, *, #227, .F. ) ;
#130 = DIRECTION ( 'NONE',  ( 1.000000000000000000, 0.0000000000000000000, 0.0000000000000000000 ) ) ;
#131 = APPROVAL ( #154, 'NEURÈENÝ' ) ;
#132 = DIRECTION ( 'NONE',  ( -0.0000000000000000000, -0.0000000000000000000, -1.000000000000000000 ) ) ;
#133 = CARTESIAN_POINT ( 'NONE',  ( 19.20000000000000284, 2.351321854362918079E-15, 6000.000000000000000 ) ) ;
#134 = CARTESIAN_POINT ( 'NONE',  ( 21.20000000000000284, 2.596251214192389164E-15, 6000.000000000000000 ) ) ;
#135 = PERSON_AND_ORGANIZATION_ROLE ( 'creator' ) ;
#136 = LOCAL_TIME ( 13, 48, 30.00000000000000000, #27 ) ;
#137 = APPROVAL_DATE_TIME ( #86, #58 ) ;
#138 = CIRCLE ( 'NONE', #201, 19.20000000000000284 ) ;
#139 = DATE_AND_TIME ( #122, #183 ) ;
#140 = EDGE_CURVE ( 'NONE', #110, #168, #165, .T. ) ;
#141 = DIRECTION ( 'NONE',  ( 0.0000000000000000000, 0.0000000000000000000, 1.000000000000000000 ) ) ;
#142 = ORIENTED_EDGE ( 'NONE', *, *, #40, .T. ) ;
#143 = VERTEX_POINT ( 'NONE', #2 ) ;
#144 = ORIENTED_EDGE ( 'NONE', *, *, #6, .F. ) ;
#145 = DIRECTION ( 'NONE',  ( -1.000000000000000000, 0.0000000000000000000, 0.0000000000000000000 ) ) ;
#146 = ADVANCED_BREP_SHAPE_REPRESENTATION ( 'A_42,4x2-6000', ( #235, #43 ), #12 ) ;
#147 = PLANE ( 'NONE',  #189 ) ;
#148 = DIRECTION ( 'NONE',  ( 0.0000000000000000000, 0.0000000000000000000, 1.000000000000000000 ) ) ;
#149 = AXIS2_PLACEMENT_3D ( 'NONE', #213, #75, #113 ) ;
#150 = DIRECTION ( 'NONE',  ( -0.0000000000000000000, -0.0000000000000000000, -1.000000000000000000 ) ) ;
#151 = CARTESIAN_POINT ( 'NONE',  ( -21.20000000000000284, 0.0000000000000000000, 6000.000000000000000 ) ) ;
#152 = DATE_TIME_ROLE ( 'classification_date' ) ;
#153 = APPLICATION_CONTEXT ( 'configuration controlled 3d designs of mechanical parts and assemblies' ) ;
#154 = APPROVAL_STATUS ( 'not_yet_approved' ) ;
#155 = PRODUCT_DEFINITION_FORMATION_WITH_SPECIFIED_SOURCE ( 'LIBOVOLNÝ', '', #56, .NOT_KNOWN. ) ;
#156 = EDGE_LOOP ( 'NONE', ( #34, #35 ) ) ;
#157 = PERSON_AND_ORGANIZATION ( #241, #242 ) ;
#158 = PERSON_AND_ORGANIZATION_ROLE ( 'creator' ) ;
#159 = CIRCLE ( 'NONE', #167, 21.20000000000000284 ) ;
#160 = ORIENTED_EDGE ( 'NONE', *, *, #49, .F. ) ;
#161 = ORIENTED_EDGE ( 'NONE', *, *, #105, .T. ) ;
#162 = APPROVAL_PERSON_ORGANIZATION ( #178, #131, #179 ) ;
#163 = DIRECTION ( 'NONE',  ( -1.000000000000000000, 0.0000000000000000000, 0.0000000000000000000 ) ) ;
#164 = ADVANCED_FACE ( 'NONE', ( #3, #192 ), #147, .F. ) ;
#165 = CIRCLE ( 'NONE', #218, 19.20000000000000284 ) ;
#166 = CARTESIAN_POINT ( 'NONE',  ( 0.0000000000000000000, 0.0000000000000000000, 6000.000000000000000 ) ) ;
#167 = AXIS2_PLACEMENT_3D ( 'NONE', #186, #169, #228 ) ;
#168 = VERTEX_POINT ( 'NONE', #210 ) ;
#169 = DIRECTION ( 'NONE',  ( 0.0000000000000000000, 0.0000000000000000000, 1.000000000000000000 ) ) ;
#170 = CYLINDRICAL_SURFACE ( 'NONE', #92, 21.20000000000000284 ) ;
#171 = CARTESIAN_POINT ( 'NONE',  ( 0.0000000000000000000, 0.0000000000000000000, 0.0000000000000000000 ) ) ;
#172 = UNCERTAINTY_MEASURE_WITH_UNIT (LENGTH_MEASURE( 1.000000000000000082E-05 ), #39, 'distance_accuracy_value', 'NONE');
#173 = LINE ( 'NONE', #134, #114 ) ;
#174 = PRODUCT_RELATED_PRODUCT_CATEGORY ( 'detail', '', ( #56 ) ) ;
#175 = SHAPE_DEFINITION_REPRESENTATION ( #52, #146 ) ;
#176 = AXIS2_PLACEMENT_3D ( 'NONE', #166, #141, #224 ) ;
#177 = COORDINATED_UNIVERSAL_TIME_OFFSET ( 1, 0, .AHEAD. ) ;
#178 = PERSON_AND_ORGANIZATION ( #241, #242 ) ;
#179 = APPROVAL_ROLE ( '' ) ;
#180 = CC_DESIGN_DATE_AND_TIME_ASSIGNMENT ( #139, #152, ( #89 ) ) ;
#181 = CIRCLE ( 'NONE', #103, 21.20000000000000284 ) ;
#182 = DIRECTION ( 'NONE',  ( -1.000000000000000000, 0.0000000000000000000, 0.0000000000000000000 ) ) ;
#183 = LOCAL_TIME ( 13, 48, 30.00000000000000000, #7 ) ;
#184 = CARTESIAN_POINT ( 'NONE',  ( 21.20000000000000284, 2.596251214192389164E-15, 0.0000000000000000000 ) ) ;
#185 = VERTEX_POINT ( 'NONE', #151 ) ;
#186 = CARTESIAN_POINT ( 'NONE',  ( 0.0000000000000000000, 0.0000000000000000000, 0.0000000000000000000 ) ) ;
#187 = ORIENTED_EDGE ( 'NONE', *, *, #117, .F. ) ;
#188 = APPROVAL ( #26, 'NEURÈENÝ' ) ;
#189 = AXIS2_PLACEMENT_3D ( 'NONE', #80, #190, #232 ) ;
#190 = DIRECTION ( 'NONE',  ( 0.0000000000000000000, 0.0000000000000000000, 1.000000000000000000 ) ) ;
#191 = CC_DESIGN_APPROVAL ( #58, ( #89 ) ) ;
#192 = FACE_BOUND ( 'NONE', #19, .T. ) ;
#193 = CARTESIAN_POINT ( 'NONE',  ( 21.20000000000000284, 2.596251214192389164E-15, 6000.000000000000000 ) ) ;
#194 = AXIS2_PLACEMENT_3D ( 'NONE', #13, #90, #163 ) ;
#195 = DIRECTION ( 'NONE',  ( -0.0000000000000000000, -0.0000000000000000000, -1.000000000000000000 ) ) ;
#196 = EDGE_CURVE ( 'NONE', #168, #110, #138, .T. ) ;
#197 = APPROVAL_PERSON_ORGANIZATION ( #157, #188, #198 ) ;
#198 = APPROVAL_ROLE ( '' ) ;
#199 = APPROVAL_STATUS ( 'not_yet_approved' ) ;
#200 = ORIENTED_EDGE ( 'NONE', *, *, #6, .T. ) ;
#201 = AXIS2_PLACEMENT_3D ( 'NONE', #23, #96, #233 ) ;
#202 = AXIS2_PLACEMENT_3D ( 'NONE', #205, #106, #182 ) ;
#203 = APPROVAL_DATE_TIME ( #84, #131 ) ;
#204 = MECHANICAL_CONTEXT ( 'NONE', #5, 'mechanical' ) ;
#205 = CARTESIAN_POINT ( 'NONE',  ( 0.0000000000000000000, 0.0000000000000000000, 6000.000000000000000 ) ) ;
#206 = CARTESIAN_POINT ( 'NONE',  ( 0.0000000000000000000, 0.0000000000000000000, 6000.000000000000000 ) ) ;
#207 = LINE ( 'NONE', #47, #71 ) ;
#208 = DIRECTION ( 'NONE',  ( 0.0000000000000000000, 0.0000000000000000000, 1.000000000000000000 ) ) ;
#209 = ORIENTED_EDGE ( 'NONE', *, *, #217, .T. ) ;
#210 = CARTESIAN_POINT ( 'NONE',  ( 19.20000000000000284, 2.351321854362918079E-15, 0.0000000000000000000 ) ) ;
#211 = ADVANCED_FACE ( 'NONE', ( #77 ), #170, .T. ) ;
#212 = DESIGN_CONTEXT ( 'detailed design', #153, 'design' ) ;
#213 = CARTESIAN_POINT ( 'NONE',  ( 0.0000000000000000000, 0.0000000000000000000, 6000.000000000000000 ) ) ;
#214 = FACE_BOUND ( 'NONE', #156, .T. ) ;
#215 = DIRECTION ( 'NONE',  ( 0.0000000000000000000, 0.0000000000000000000, 1.000000000000000000 ) ) ;
#216 = DIRECTION ( 'NONE',  ( 0.0000000000000000000, 0.0000000000000000000, 1.000000000000000000 ) ) ;
#217 = EDGE_CURVE ( 'NONE', #143, #168, #59, .T. ) ;
#218 = AXIS2_PLACEMENT_3D ( 'NONE', #171, #148, #60 ) ;
#219 = CALENDAR_DATE ( 2019, 7, 11 ) ;
#220 = DATE_AND_TIME ( #46, #136 ) ;
#221 = ORIENTED_EDGE ( 'NONE', *, *, #244, .F. ) ;
#222 = CC_DESIGN_PERSON_AND_ORGANIZATION_ASSIGNMENT ( #82, #243, ( #155 ) ) ;
#223 = DIRECTION ( 'NONE',  ( -0.0000000000000000000, -0.0000000000000000000, -1.000000000000000000 ) ) ;
#224 = DIRECTION ( 'NONE',  ( 1.000000000000000000, 0.0000000000000000000, 0.0000000000000000000 ) ) ;
#225 = VERTEX_POINT ( 'NONE', #230 ) ;
#226 = EDGE_LOOP ( 'NONE', ( #31, #126, #125, #30 ) ) ;
#227 = EDGE_CURVE ( 'NONE', #185, #246, #15, .T. ) ;
#228 = DIRECTION ( 'NONE',  ( 1.000000000000000000, 0.0000000000000000000, 0.0000000000000000000 ) ) ;
#229 = CIRCLE ( 'NONE', #93, 19.20000000000000284 ) ;
#230 = CARTESIAN_POINT ( 'NONE',  ( -21.20000000000000284, 0.0000000000000000000, 0.0000000000000000000 ) ) ;
#231 = DIRECTION ( 'NONE',  ( -0.0000000000000000000, -0.0000000000000000000, -1.000000000000000000 ) ) ;
#232 = DIRECTION ( 'NONE',  ( 1.000000000000000000, 0.0000000000000000000, -0.0000000000000000000 ) ) ;
#233 = DIRECTION ( 'NONE',  ( 1.000000000000000000, 0.0000000000000000000, 0.0000000000000000000 ) ) ;
#234 = DIRECTION ( 'NONE',  ( 0.0000000000000000000, 0.0000000000000000000, 1.000000000000000000 ) ) ;
#235 = MANIFOLD_SOLID_BREP ( 'Vysunout tenkostìnný1', #236 ) ;
#236 = CLOSED_SHELL ( 'NONE', ( #67, #61, #112, #164, #211, #16 ) ) ;
#237 = PERSON_AND_ORGANIZATION ( #241, #242 ) ;
#238 = APPROVAL_PERSON_ORGANIZATION ( #63, #58, #100 ) ;
#239 = SECURITY_CLASSIFICATION_LEVEL ( 'unclassified' ) ;
#240 = CC_DESIGN_PERSON_AND_ORGANIZATION_ASSIGNMENT ( #10, #104, ( #89 ) ) ;
#241 = PERSON ( 'NEURÈENÝ', 'NEURÈENÝ', 'NEURÈENÝ', ('NEURÈENÝ'), ('NEURÈENÝ'), ('NEURÈENÝ') ) ;
#242 = ORGANIZATION ( 'NEURÈENÝ', 'NEURÈENÝ', '' ) ;
#243 = PERSON_AND_ORGANIZATION_ROLE ( 'design_supplier' ) ;
#244 = EDGE_CURVE ( 'NONE', #66, #110, #41, .T. ) ;
#245 = ORIENTED_EDGE ( 'NONE', *, *, #105, .F. ) ;
#246 = VERTEX_POINT ( 'NONE', #193 ) ;
#247 = DIRECTION ( 'NONE',  ( 0.0000000000000000000, 0.0000000000000000000, 1.000000000000000000 ) ) ;
#248 = EDGE_LOOP ( 'NONE', ( #142, #209, #9, #221 ) ) ;
#249 = CARTESIAN_POINT ( 'NONE',  ( 0.0000000000000000000, 0.0000000000000000000, 6000.000000000000000 ) ) ;
ENDSEC;
END-ISO-10303-21;
