ISO-10303-21;
HEADER;
FILE_DESCRIPTION (( 'STEP AP203' ),
    '1' );
FILE_NAME ('A_12x1,5-6000.STEP',
    '2019-11-07T12:49:08',
    ( '' ),
    ( '' ),
    'SwSTEP 2.0',
    'SolidWorks 2019',
    '' );
FILE_SCHEMA (( 'CONFIG_CONTROL_DESIGN' ));
ENDSEC;

DATA;
#1 = EDGE_CURVE ( 'NONE', #179, #222, #129, .T. ) ;
#2 = DIRECTION ( 'NONE',  ( -0.0000000000000000000, -0.0000000000000000000, -1.000000000000000000 ) ) ;
#3 = ORIENTED_EDGE ( 'NONE', *, *, #181, .F. ) ;
#4 = DIRECTION ( 'NONE',  ( 1.000000000000000000, 0.0000000000000000000, 0.0000000000000000000 ) ) ;
#5 = ORIENTED_EDGE ( 'NONE', *, *, #1, .T. ) ;
#6 = DIRECTION ( 'NONE',  ( 1.000000000000000000, 0.0000000000000000000, 0.0000000000000000000 ) ) ;
#7 = VERTEX_POINT ( 'NONE', #19 ) ;
#8 = DATE_AND_TIME ( #121, #135 ) ;
#9 = ORIENTED_EDGE ( 'NONE', *, *, #92, .T. ) ;
#10 = APPROVAL_ROLE ( '' ) ;
#11 = PRODUCT_DEFINITION_FORMATION_WITH_SPECIFIED_SOURCE ( 'LIBOVOLNÝ', '', #29, .NOT_KNOWN. ) ;
#12 = SECURITY_CLASSIFICATION ( '', '', #204 ) ;
#13 = CIRCLE ( 'NONE', #26, 4.499999999999999112 ) ;
#14 = PERSON_AND_ORGANIZATION ( #221, #167 ) ;
#15 = DIRECTION ( 'NONE',  ( -1.000000000000000000, 0.0000000000000000000, 0.0000000000000000000 ) ) ;
#16 = APPROVAL ( #17, 'NEURÈENÝ' ) ;
#17 = APPROVAL_STATUS ( 'not_yet_approved' ) ;
#18 = DIRECTION ( 'NONE',  ( 1.000000000000000000, 0.0000000000000000000, 0.0000000000000000000 ) ) ;
#19 = CARTESIAN_POINT ( 'NONE',  ( 5.999999999999999112, 7.347880794884118750E-16, 6000.000000000000000 ) ) ;
#20 = CIRCLE ( 'NONE', #40, 4.499999999999999112 ) ;
#21 = ORIENTED_EDGE ( 'NONE', *, *, #1, .F. ) ;
#22 = EDGE_LOOP ( 'NONE', ( #189, #21 ) ) ;
#23 = LINE ( 'NONE', #44, #203 ) ;
#24 =( GEOMETRIC_REPRESENTATION_CONTEXT ( 3 ) GLOBAL_UNCERTAINTY_ASSIGNED_CONTEXT ( ( #146 ) ) GLOBAL_UNIT_ASSIGNED_CONTEXT ( ( #118, #61, #78 ) ) REPRESENTATION_CONTEXT ( 'NONE', 'WORKASPACE' ) );
#25 = EDGE_CURVE ( 'NONE', #227, #159, #226, .T. ) ;
#26 = AXIS2_PLACEMENT_3D ( 'NONE', #212, #194, #211 ) ;
#27 = CC_DESIGN_PERSON_AND_ORGANIZATION_ASSIGNMENT ( #165, #144, ( #12 ) ) ;
#28 = ORIENTED_EDGE ( 'NONE', *, *, #82, .T. ) ;
#29 = PRODUCT ( 'A_12x1,5-6000', 'A_12x1,5-6000', '', ( #57 ) ) ;
#30 = LOCAL_TIME ( 13, 49, 8.000000000000000000, #223 ) ;
#31 = CALENDAR_DATE ( 2019, 7, 11 ) ;
#32 = ORIENTED_EDGE ( 'NONE', *, *, #25, .T. ) ;
#33 = PERSON_AND_ORGANIZATION ( #221, #167 ) ;
#34 = CC_DESIGN_APPROVAL ( #185, ( #12 ) ) ;
#35 = CARTESIAN_POINT ( 'NONE',  ( 0.0000000000000000000, 0.0000000000000000000, 6000.000000000000000 ) ) ;
#36 = CYLINDRICAL_SURFACE ( 'NONE', #115, 4.499999999999999112 ) ;
#37 = PERSON_AND_ORGANIZATION ( #221, #167 ) ;
#38 = ORIENTED_EDGE ( 'NONE', *, *, #241, .T. ) ;
#39 = ORIENTED_EDGE ( 'NONE', *, *, #218, .T. ) ;
#40 = AXIS2_PLACEMENT_3D ( 'NONE', #95, #130, #215 ) ;
#41 = FACE_OUTER_BOUND ( 'NONE', #85, .T. ) ;
#42 = ADVANCED_BREP_SHAPE_REPRESENTATION ( 'A_12x1,5-6000', ( #86, #195 ), #24 ) ;
#43 = FACE_BOUND ( 'NONE', #191, .T. ) ;
#44 = CARTESIAN_POINT ( 'NONE',  ( -5.999999999999999112, 0.0000000000000000000, 6000.000000000000000 ) ) ;
#45 = AXIS2_PLACEMENT_3D ( 'NONE', #60, #96, #137 ) ;
#46 = DIRECTION ( 'NONE',  ( 0.0000000000000000000, 0.0000000000000000000, 1.000000000000000000 ) ) ;
#47 = AXIS2_PLACEMENT_3D ( 'NONE', #244, #242, #54 ) ;
#48 = DIRECTION ( 'NONE',  ( 1.000000000000000000, 0.0000000000000000000, -0.0000000000000000000 ) ) ;
#49 = CIRCLE ( 'NONE', #63, 4.499999999999999112 ) ;
#50 = PERSON_AND_ORGANIZATION ( #221, #167 ) ;
#51 = CALENDAR_DATE ( 2019, 7, 11 ) ;
#52 = DIRECTION ( 'NONE',  ( 0.0000000000000000000, 0.0000000000000000000, 1.000000000000000000 ) ) ;
#53 = LINE ( 'NONE', #88, #120 ) ;
#54 = DIRECTION ( 'NONE',  ( -1.000000000000000000, 0.0000000000000000000, 0.0000000000000000000 ) ) ;
#55 = DIRECTION ( 'NONE',  ( -0.0000000000000000000, -0.0000000000000000000, -1.000000000000000000 ) ) ;
#56 = CIRCLE ( 'NONE', #161, 4.499999999999999112 ) ;
#57 = MECHANICAL_CONTEXT ( 'NONE', #99, 'mechanical' ) ;
#58 = CC_DESIGN_PERSON_AND_ORGANIZATION_ASSIGNMENT ( #214, #113, ( #29 ) ) ;
#59 = CARTESIAN_POINT ( 'NONE',  ( 0.0000000000000000000, 0.0000000000000000000, 0.0000000000000000000 ) ) ;
#60 = CARTESIAN_POINT ( 'NONE',  ( 0.0000000000000000000, 0.0000000000000000000, 6000.000000000000000 ) ) ;
#61 =( NAMED_UNIT ( * ) PLANE_ANGLE_UNIT ( ) SI_UNIT ( $, .RADIAN. ) );
#62 = APPROVAL ( #230, 'NEURÈENÝ' ) ;
#63 = AXIS2_PLACEMENT_3D ( 'NONE', #216, #98, #4 ) ;
#64 = CIRCLE ( 'NONE', #248, 5.999999999999999112 ) ;
#65 = ADVANCED_FACE ( 'NONE', ( #126 ), #109, .T. ) ;
#66 = CALENDAR_DATE ( 2019, 7, 11 ) ;
#67 = EDGE_LOOP ( 'NONE', ( #196, #170, #5, #236 ) ) ;
#68 = PERSON_AND_ORGANIZATION_ROLE ( 'creator' ) ;
#69 = EDGE_LOOP ( 'NONE', ( #176, #122, #147, #237 ) ) ;
#70 = SHAPE_DEFINITION_REPRESENTATION ( #219, #42 ) ;
#71 = AXIS2_PLACEMENT_3D ( 'NONE', #229, #73, #123 ) ;
#72 = DIRECTION ( 'NONE',  ( 0.0000000000000000000, 0.0000000000000000000, 1.000000000000000000 ) ) ;
#73 = DIRECTION ( 'NONE',  ( -0.0000000000000000000, -0.0000000000000000000, -1.000000000000000000 ) ) ;
#74 = CARTESIAN_POINT ( 'NONE',  ( 0.0000000000000000000, 0.0000000000000000000, 0.0000000000000000000 ) ) ;
#75 = CYLINDRICAL_SURFACE ( 'NONE', #71, 5.999999999999999112 ) ;
#76 = LOCAL_TIME ( 13, 49, 8.000000000000000000, #125 ) ;
#77 = DIRECTION ( 'NONE',  ( -0.0000000000000000000, -0.0000000000000000000, -1.000000000000000000 ) ) ;
#78 =( NAMED_UNIT ( * ) SI_UNIT ( $, .STERADIAN. ) SOLID_ANGLE_UNIT ( ) );
#79 = EDGE_LOOP ( 'NONE', ( #39, #162 ) ) ;
#80 = LINE ( 'NONE', #249, #178 ) ;
#81 = PLANE ( 'NONE',  #94 ) ;
#82 = EDGE_CURVE ( 'NONE', #210, #227, #13, .T. ) ;
#83 = CC_DESIGN_SECURITY_CLASSIFICATION ( #12, ( #11 ) ) ;
#84 = COORDINATED_UNIVERSAL_TIME_OFFSET ( 1, 0, .AHEAD. ) ;
#85 = EDGE_LOOP ( 'NONE', ( #235, #9, #38, #3 ) ) ;
#86 = MANIFOLD_SOLID_BREP ( 'Vysunout tenkostìnný1', #136 ) ;
#87 = PERSON_AND_ORGANIZATION ( #221, #167 ) ;
#88 = CARTESIAN_POINT ( 'NONE',  ( 5.999999999999999112, 7.347880794884118750E-16, 6000.000000000000000 ) ) ;
#89 = DIRECTION ( 'NONE',  ( 1.000000000000000000, 0.0000000000000000000, 0.0000000000000000000 ) ) ;
#90 = ORIENTED_EDGE ( 'NONE', *, *, #82, .F. ) ;
#91 = FACE_OUTER_BOUND ( 'NONE', #67, .T. ) ;
#92 = EDGE_CURVE ( 'NONE', #227, #210, #56, .T. ) ;
#93 = DIRECTION ( 'NONE',  ( 0.0000000000000000000, 0.0000000000000000000, 1.000000000000000000 ) ) ;
#94 = AXIS2_PLACEMENT_3D ( 'NONE', #59, #46, #48 ) ;
#95 = CARTESIAN_POINT ( 'NONE',  ( 0.0000000000000000000, 0.0000000000000000000, 0.0000000000000000000 ) ) ;
#96 = DIRECTION ( 'NONE',  ( 0.0000000000000000000, 0.0000000000000000000, 1.000000000000000000 ) ) ;
#97 = ADVANCED_FACE ( 'NONE', ( #41 ), #224, .F. ) ;
#98 = DIRECTION ( 'NONE',  ( 0.0000000000000000000, 0.0000000000000000000, 1.000000000000000000 ) ) ;
#99 = APPLICATION_CONTEXT ( 'configuration controlled 3d designs of mechanical parts and assemblies' ) ;
#100 = DATE_AND_TIME ( #51, #30 ) ;
#101 = VERTEX_POINT ( 'NONE', #112 ) ;
#102 = ORIENTED_EDGE ( 'NONE', *, *, #92, .F. ) ;
#103 = DATE_AND_TIME ( #31, #76 ) ;
#104 = AXIS2_PLACEMENT_3D ( 'NONE', #74, #206, #148 ) ;
#105 = CARTESIAN_POINT ( 'NONE',  ( 0.0000000000000000000, 0.0000000000000000000, 6000.000000000000000 ) ) ;
#106 = DIRECTION ( 'NONE',  ( 0.0000000000000000000, 0.0000000000000000000, 1.000000000000000000 ) ) ;
#107 = EDGE_CURVE ( 'NONE', #222, #179, #64, .T. ) ;
#108 = APPROVAL_ROLE ( '' ) ;
#109 = CYLINDRICAL_SURFACE ( 'NONE', #116, 5.999999999999999112 ) ;
#110 = DIRECTION ( 'NONE',  ( -0.0000000000000000000, -0.0000000000000000000, -1.000000000000000000 ) ) ;
#111 = CC_DESIGN_PERSON_AND_ORGANIZATION_ASSIGNMENT ( #14, #68, ( #11 ) ) ;
#112 = CARTESIAN_POINT ( 'NONE',  ( -4.499999999999999112, 0.0000000000000000000, 0.0000000000000000000 ) ) ;
#113 = PERSON_AND_ORGANIZATION_ROLE ( 'design_owner' ) ;
#114 = CARTESIAN_POINT ( 'NONE',  ( 4.499999999999999112, 5.510910596163087583E-16, 6000.000000000000000 ) ) ;
#115 = AXIS2_PLACEMENT_3D ( 'NONE', #35, #110, #15 ) ;
#116 = AXIS2_PLACEMENT_3D ( 'NONE', #239, #143, #128 ) ;
#117 = CARTESIAN_POINT ( 'NONE',  ( 5.999999999999999112, 7.347880794884118750E-16, 0.0000000000000000000 ) ) ;
#118 =( LENGTH_UNIT ( ) NAMED_UNIT ( * ) SI_UNIT ( .MILLI., .METRE. ) );
#119 = DIRECTION ( 'NONE',  ( -0.0000000000000000000, -0.0000000000000000000, -1.000000000000000000 ) ) ;
#120 = VECTOR ( 'NONE', #119, 1000.000000000000000 ) ;
#121 = CALENDAR_DATE ( 2019, 7, 11 ) ;
#122 = ORIENTED_EDGE ( 'NONE', *, *, #132, .F. ) ;
#123 = DIRECTION ( 'NONE',  ( -1.000000000000000000, 0.0000000000000000000, 0.0000000000000000000 ) ) ;
#124 = CARTESIAN_POINT ( 'NONE',  ( 0.0000000000000000000, 0.0000000000000000000, 6000.000000000000000 ) ) ;
#125 = COORDINATED_UNIVERSAL_TIME_OFFSET ( 1, 0, .AHEAD. ) ;
#126 = FACE_OUTER_BOUND ( 'NONE', #69, .T. ) ;
#127 = CARTESIAN_POINT ( 'NONE',  ( 0.0000000000000000000, 0.0000000000000000000, 6000.000000000000000 ) ) ;
#128 = DIRECTION ( 'NONE',  ( -1.000000000000000000, 0.0000000000000000000, 0.0000000000000000000 ) ) ;
#129 = CIRCLE ( 'NONE', #104, 5.999999999999999112 ) ;
#130 = DIRECTION ( 'NONE',  ( 0.0000000000000000000, 0.0000000000000000000, 1.000000000000000000 ) ) ;
#131 = APPROVAL_PERSON_ORGANIZATION ( #37, #185, #108 ) ;
#132 = EDGE_CURVE ( 'NONE', #166, #7, #151, .T. ) ;
#133 = CARTESIAN_POINT ( 'NONE',  ( -5.999999999999999112, 0.0000000000000000000, 0.0000000000000000000 ) ) ;
#134 = ADVANCED_FACE ( 'NONE', ( #91 ), #75, .T. ) ;
#135 = LOCAL_TIME ( 13, 49, 8.000000000000000000, #84 ) ;
#136 = CLOSED_SHELL ( 'NONE', ( #142, #134, #198, #201, #65, #97 ) ) ;
#137 = DIRECTION ( 'NONE',  ( 1.000000000000000000, 0.0000000000000000000, -0.0000000000000000000 ) ) ;
#138 = DATE_AND_TIME ( #66, #243 ) ;
#139 = CALENDAR_DATE ( 2019, 7, 11 ) ;
#140 = ORIENTED_EDGE ( 'NONE', *, *, #153, .T. ) ;
#141 = PERSON_AND_ORGANIZATION_ROLE ( 'design_supplier' ) ;
#142 = ADVANCED_FACE ( 'NONE', ( #145 ), #36, .F. ) ;
#143 = DIRECTION ( 'NONE',  ( -0.0000000000000000000, -0.0000000000000000000, -1.000000000000000000 ) ) ;
#144 = PERSON_AND_ORGANIZATION_ROLE ( 'classification_officer' ) ;
#145 = FACE_OUTER_BOUND ( 'NONE', #200, .T. ) ;
#146 = UNCERTAINTY_MEASURE_WITH_UNIT (LENGTH_MEASURE( 1.000000000000000082E-05 ), #118, 'distance_accuracy_value', 'NONE');
#147 = ORIENTED_EDGE ( 'NONE', *, *, #174, .T. ) ;
#148 = DIRECTION ( 'NONE',  ( 1.000000000000000000, 0.0000000000000000000, 0.0000000000000000000 ) ) ;
#149 = APPROVAL_PERSON_ORGANIZATION ( #50, #16, #10 ) ;
#150 = DIRECTION ( 'NONE',  ( 1.000000000000000000, 0.0000000000000000000, 0.0000000000000000000 ) ) ;
#151 = CIRCLE ( 'NONE', #172, 5.999999999999999112 ) ;
#152 = PERSON_AND_ORGANIZATION ( #221, #167 ) ;
#153 = EDGE_CURVE ( 'NONE', #7, #166, #247, .T. ) ;
#154 = EDGE_CURVE ( 'NONE', #7, #179, #53, .T. ) ;
#155 = FACE_OUTER_BOUND ( 'NONE', #169, .T. ) ;
#156 = AXIS2_PLACEMENT_3D ( 'NONE', #124, #106, #18 ) ;
#157 = ORIENTED_EDGE ( 'NONE', *, *, #218, .F. ) ;
#158 = APPLICATION_PROTOCOL_DEFINITION ( 'international standard', 'config_control_design', 1994, #99 ) ;
#159 = VERTEX_POINT ( 'NONE', #175 ) ;
#160 = APPROVAL_ROLE ( '' ) ;
#161 = AXIS2_PLACEMENT_3D ( 'NONE', #105, #208, #150 ) ;
#162 = ORIENTED_EDGE ( 'NONE', *, *, #181, .T. ) ;
#163 = COORDINATED_UNIVERSAL_TIME_OFFSET ( 1, 0, .AHEAD. ) ;
#164 = ORIENTED_EDGE ( 'NONE', *, *, #241, .F. ) ;
#165 = PERSON_AND_ORGANIZATION ( #221, #167 ) ;
#166 = VERTEX_POINT ( 'NONE', #177 ) ;
#167 = ORGANIZATION ( 'NEURÈENÝ', 'NEURÈENÝ', '' ) ;
#168 = CARTESIAN_POINT ( 'NONE',  ( 4.499999999999999112, 5.510910596163087583E-16, 6000.000000000000000 ) ) ;
#169 = EDGE_LOOP ( 'NONE', ( #183, #140 ) ) ;
#170 = ORIENTED_EDGE ( 'NONE', *, *, #154, .T. ) ;
#171 = APPLICATION_PROTOCOL_DEFINITION ( 'international standard', 'config_control_design', 1994, #232 ) ;
#172 = AXIS2_PLACEMENT_3D ( 'NONE', #127, #52, #246 ) ;
#173 = CC_DESIGN_PERSON_AND_ORGANIZATION_ASSIGNMENT ( #87, #141, ( #11 ) ) ;
#174 = EDGE_CURVE ( 'NONE', #166, #222, #23, .T. ) ;
#175 = CARTESIAN_POINT ( 'NONE',  ( 4.499999999999999112, 5.510910596163087583E-16, 0.0000000000000000000 ) ) ;
#176 = ORIENTED_EDGE ( 'NONE', *, *, #154, .F. ) ;
#177 = CARTESIAN_POINT ( 'NONE',  ( -5.999999999999999112, 0.0000000000000000000, 6000.000000000000000 ) ) ;
#178 = VECTOR ( 'NONE', #77, 1000.000000000000000 ) ;
#179 = VERTEX_POINT ( 'NONE', #117 ) ;
#180 = CARTESIAN_POINT ( 'NONE',  ( 0.0000000000000000000, 0.0000000000000000000, 0.0000000000000000000 ) ) ;
#181 = EDGE_CURVE ( 'NONE', #159, #101, #20, .T. ) ;
#182 = APPROVAL_DATE_TIME ( #100, #185 ) ;
#183 = ORIENTED_EDGE ( 'NONE', *, *, #132, .T. ) ;
#184 = PERSON_AND_ORGANIZATION_ROLE ( 'creator' ) ;
#185 = APPROVAL ( #207, 'NEURÈENÝ' ) ;
#186 = APPROVAL_PERSON_ORGANIZATION ( #152, #62, #160 ) ;
#187 = DATE_TIME_ROLE ( 'creation_date' ) ;
#188 = VECTOR ( 'NONE', #55, 1000.000000000000000 ) ;
#189 = ORIENTED_EDGE ( 'NONE', *, *, #107, .F. ) ;
#190 = APPROVAL_DATE_TIME ( #103, #62 ) ;
#191 = EDGE_LOOP ( 'NONE', ( #90, #102 ) ) ;
#192 = DESIGN_CONTEXT ( 'detailed design', #232, 'design' ) ;
#193 = DATE_TIME_ROLE ( 'classification_date' ) ;
#194 = DIRECTION ( 'NONE',  ( 0.0000000000000000000, 0.0000000000000000000, 1.000000000000000000 ) ) ;
#195 = AXIS2_PLACEMENT_3D ( 'NONE', #180, #93, #6 ) ;
#196 = ORIENTED_EDGE ( 'NONE', *, *, #153, .F. ) ;
#197 = CARTESIAN_POINT ( 'NONE',  ( 0.0000000000000000000, 0.0000000000000000000, 0.0000000000000000000 ) ) ;
#198 = ADVANCED_FACE ( 'NONE', ( #155, #43 ), #199, .T. ) ;
#199 = PLANE ( 'NONE',  #45 ) ;
#200 = EDGE_LOOP ( 'NONE', ( #28, #32, #157, #164 ) ) ;
#201 = ADVANCED_FACE ( 'NONE', ( #233, #217 ), #81, .F. ) ;
#202 = CARTESIAN_POINT ( 'NONE',  ( -4.499999999999999112, 0.0000000000000000000, 6000.000000000000000 ) ) ;
#203 = VECTOR ( 'NONE', #2, 1000.000000000000000 ) ;
#204 = SECURITY_CLASSIFICATION_LEVEL ( 'unclassified' ) ;
#205 = CC_DESIGN_DATE_AND_TIME_ASSIGNMENT ( #138, #187, ( #225 ) ) ;
#206 = DIRECTION ( 'NONE',  ( 0.0000000000000000000, 0.0000000000000000000, 1.000000000000000000 ) ) ;
#207 = APPROVAL_STATUS ( 'not_yet_approved' ) ;
#208 = DIRECTION ( 'NONE',  ( 0.0000000000000000000, 0.0000000000000000000, 1.000000000000000000 ) ) ;
#209 = COORDINATED_UNIVERSAL_TIME_OFFSET ( 1, 0, .AHEAD. ) ;
#210 = VERTEX_POINT ( 'NONE', #202 ) ;
#211 = DIRECTION ( 'NONE',  ( 1.000000000000000000, 0.0000000000000000000, 0.0000000000000000000 ) ) ;
#212 = CARTESIAN_POINT ( 'NONE',  ( 0.0000000000000000000, 0.0000000000000000000, 6000.000000000000000 ) ) ;
#213 = PRODUCT_RELATED_PRODUCT_CATEGORY ( 'detail', '', ( #29 ) ) ;
#214 = PERSON_AND_ORGANIZATION ( #221, #167 ) ;
#215 = DIRECTION ( 'NONE',  ( 1.000000000000000000, 0.0000000000000000000, 0.0000000000000000000 ) ) ;
#216 = CARTESIAN_POINT ( 'NONE',  ( 0.0000000000000000000, 0.0000000000000000000, 0.0000000000000000000 ) ) ;
#217 = FACE_BOUND ( 'NONE', #79, .T. ) ;
#218 = EDGE_CURVE ( 'NONE', #101, #159, #49, .T. ) ;
#219 = PRODUCT_DEFINITION_SHAPE ( 'NONE', 'NONE',  #225 ) ;
#220 = APPROVAL_DATE_TIME ( #240, #16 ) ;
#221 = PERSON ( 'NEURÈENÝ', 'NEURÈENÝ', 'NEURÈENÝ', ('NEURÈENÝ'), ('NEURÈENÝ'), ('NEURÈENÝ') ) ;
#222 = VERTEX_POINT ( 'NONE', #133 ) ;
#223 = COORDINATED_UNIVERSAL_TIME_OFFSET ( 1, 0, .AHEAD. ) ;
#224 = CYLINDRICAL_SURFACE ( 'NONE', #47, 4.499999999999999112 ) ;
#225 = PRODUCT_DEFINITION ( 'NEZNÁMÝ', '', #11, #192 ) ;
#226 = LINE ( 'NONE', #168, #188 ) ;
#227 = VERTEX_POINT ( 'NONE', #114 ) ;
#228 = CC_DESIGN_DATE_AND_TIME_ASSIGNMENT ( #8, #193, ( #12 ) ) ;
#229 = CARTESIAN_POINT ( 'NONE',  ( 0.0000000000000000000, 0.0000000000000000000, 6000.000000000000000 ) ) ;
#230 = APPROVAL_STATUS ( 'not_yet_approved' ) ;
#231 = LOCAL_TIME ( 13, 49, 8.000000000000000000, #209 ) ;
#232 = APPLICATION_CONTEXT ( 'configuration controlled 3d designs of mechanical parts and assemblies' ) ;
#233 = FACE_OUTER_BOUND ( 'NONE', #22, .T. ) ;
#234 = CC_DESIGN_APPROVAL ( #62, ( #225 ) ) ;
#235 = ORIENTED_EDGE ( 'NONE', *, *, #25, .F. ) ;
#236 = ORIENTED_EDGE ( 'NONE', *, *, #174, .F. ) ;
#237 = ORIENTED_EDGE ( 'NONE', *, *, #107, .T. ) ;
#238 = CC_DESIGN_APPROVAL ( #16, ( #11 ) ) ;
#239 = CARTESIAN_POINT ( 'NONE',  ( 0.0000000000000000000, 0.0000000000000000000, 6000.000000000000000 ) ) ;
#240 = DATE_AND_TIME ( #139, #231 ) ;
#241 = EDGE_CURVE ( 'NONE', #210, #101, #80, .T. ) ;
#242 = DIRECTION ( 'NONE',  ( -0.0000000000000000000, -0.0000000000000000000, -1.000000000000000000 ) ) ;
#243 = LOCAL_TIME ( 13, 49, 8.000000000000000000, #163 ) ;
#244 = CARTESIAN_POINT ( 'NONE',  ( 0.0000000000000000000, 0.0000000000000000000, 6000.000000000000000 ) ) ;
#245 = CC_DESIGN_PERSON_AND_ORGANIZATION_ASSIGNMENT ( #33, #184, ( #225 ) ) ;
#246 = DIRECTION ( 'NONE',  ( 1.000000000000000000, 0.0000000000000000000, 0.0000000000000000000 ) ) ;
#247 = CIRCLE ( 'NONE', #156, 5.999999999999999112 ) ;
#248 = AXIS2_PLACEMENT_3D ( 'NONE', #197, #72, #89 ) ;
#249 = CARTESIAN_POINT ( 'NONE',  ( -4.499999999999999112, 0.0000000000000000000, 6000.000000000000000 ) ) ;
ENDSEC;
END-ISO-10303-21;
