ISO-10303-21;
HEADER;
FILE_DESCRIPTION (( 'STEP AP214' ),
    '1' );
FILE_NAME ('A_48,3x2-6000.STEP',
    '2021-03-15T07:18:13',
    ( '' ),
    ( '' ),
    'SwSTEP 2.0',
    'SolidWorks 2019',
    '' );
FILE_SCHEMA (( 'AUTOMOTIVE_DESIGN' ));
ENDSEC;

DATA;
#1 = LINE ( 'NONE', #175, #73 ) ;
#2 = DIRECTION ( 'NONE',  ( -0.000000000000000000, 0.000000000000000000, 1.000000000000000000 ) ) ;
#3 = ADVANCED_BREP_SHAPE_REPRESENTATION ( 'A_48,3x2-6000', ( #42, #99 ), #143 ) ;
#4 = DIRECTION ( 'NONE',  ( -0.000000000000000000, -0.000000000000000000, -1.000000000000000000 ) ) ;
#5 = DIRECTION ( 'NONE',  ( 1.000000000000000000, 0.000000000000000000, 0.000000000000000000 ) ) ;
#6 = FACE_OUTER_BOUND ( 'NONE', #185, .T. ) ;
#7 = VERTEX_POINT ( 'NONE', #32 ) ;
#8 =( LENGTH_UNIT ( ) NAMED_UNIT ( * ) SI_UNIT ( .MILLI., .METRE. ) );
#9 = AXIS2_PLACEMENT_3D ( 'NONE', #86, #212, #198 ) ;
#10 = FILL_AREA_STYLE ('',( #209 ) ) ;
#11 = FILL_AREA_STYLE_COLOUR ( '', #202 ) ;
#12 = EDGE_CURVE ( 'NONE', #103, #68, #30, .T. ) ;
#13 = PRESENTATION_STYLE_ASSIGNMENT (( #154 ) ) ;
#14 = ORIENTED_EDGE ( 'NONE', *, *, #72, .T. ) ;
#15 =( NAMED_UNIT ( * ) SI_UNIT ( $, .STERADIAN. ) SOLID_ANGLE_UNIT ( ) );
#16 = VERTEX_POINT ( 'NONE', #116 ) ;
#17 = AXIS2_PLACEMENT_3D ( 'NONE', #211, #191, #153 ) ;
#18 = DIRECTION ( 'NONE',  ( -0.000000000000000000, -0.000000000000000000, -1.000000000000000000 ) ) ;
#19 = PRESENTATION_LAYER_ASSIGNMENT (  '', '', ( #144 ) ) ;
#20 = EDGE_LOOP ( 'NONE', ( #214, #75 ) ) ;
#21 = FACE_OUTER_BOUND ( 'NONE', #20, .T. ) ;
#22 = EDGE_CURVE ( 'NONE', #158, #16, #160, .T. ) ;
#23 = SURFACE_STYLE_FILL_AREA ( #10 ) ;
#24 = CARTESIAN_POINT ( 'NONE',  ( 0.000000000000000000, 0.000000000000000000, 0.000000000000000000 ) ) ;
#25 = CARTESIAN_POINT ( 'NONE',  ( -22.14999999999999503, 0.000000000000000000, 3000.000000000000000 ) ) ;
#26 =( LENGTH_UNIT ( ) NAMED_UNIT ( * ) SI_UNIT ( .MILLI., .METRE. ) );
#27 = AXIS2_PLACEMENT_3D ( 'NONE', #92, #146, #164 ) ;
#28 = MECHANICAL_DESIGN_GEOMETRIC_PRESENTATION_REPRESENTATION (  '', ( #71 ), #188 ) ;
#29 = SURFACE_STYLE_FILL_AREA ( #117 ) ;
#30 = CIRCLE ( 'NONE', #9, 22.14999999999999503 ) ;
#31 =( NAMED_UNIT ( * ) SI_UNIT ( $, .STERADIAN. ) SOLID_ANGLE_UNIT ( ) );
#32 = CARTESIAN_POINT ( 'NONE',  ( 24.14999999999999858, 2.957522019940857930E-15, 0.000000000000000000 ) ) ;
#33 = ORIENTED_EDGE ( 'NONE', *, *, #72, .F. ) ;
#34 = DIRECTION ( 'NONE',  ( 1.000000000000000000, 0.000000000000000000, 0.000000000000000000 ) ) ;
#35 = AXIS2_PLACEMENT_3D ( 'NONE', #37, #163, #128 ) ;
#36 = CARTESIAN_POINT ( 'NONE',  ( -24.14999999999999858, 0.000000000000000000, 3000.000000000000000 ) ) ;
#37 = CARTESIAN_POINT ( 'NONE',  ( 0.000000000000000000, 0.000000000000000000, 0.000000000000000000 ) ) ;
#38 = FACE_BOUND ( 'NONE', #172, .T. ) ;
#39 = CARTESIAN_POINT ( 'NONE',  ( -22.14999999999999503, 0.000000000000000000, 3000.000000000000000 ) ) ;
#40 = DIRECTION ( 'NONE',  ( 1.000000000000000000, 0.000000000000000000, 0.000000000000000000 ) ) ;
#41 = DIRECTION ( 'NONE',  ( -0.000000000000000000, -0.000000000000000000, -1.000000000000000000 ) ) ;
#42 = MANIFOLD_SOLID_BREP ( 'Vysunout tenkostìnný1', #83 ) ;
#43 = ADVANCED_FACE ( 'NONE', ( #138, #85 ), #66, .T. ) ;
#44 = VECTOR ( 'NONE', #130, 1000.000000000000000 ) ;
#45 = PRESENTATION_LAYER_ASSIGNMENT (  '', '', ( #71 ) ) ;
#46 = ADVANCED_FACE ( 'NONE', ( #205 ), #108, .T. ) ;
#47 = ORIENTED_EDGE ( 'NONE', *, *, #161, .F. ) ;
#48 = ORIENTED_EDGE ( 'NONE', *, *, #81, .T. ) ;
#49 = PRODUCT_CONTEXT ( 'NONE', #139, 'mechanical' ) ;
#50 = PRODUCT_DEFINITION ( 'NEZNÁMÝ', '', #127, #200 ) ;
#51 = PRODUCT_DEFINITION_SHAPE ( 'NONE', 'NONE',  #50 ) ;
#52 = EDGE_CURVE ( 'NONE', #16, #7, #1, .T. ) ;
#53 = DIRECTION ( 'NONE',  ( 1.000000000000000000, 0.000000000000000000, 0.000000000000000000 ) ) ;
#54 = VECTOR ( 'NONE', #18, 1000.000000000000000 ) ;
#55 = AXIS2_PLACEMENT_3D ( 'NONE', #193, #110, #5 ) ;
#56 = DIRECTION ( 'NONE',  ( -0.000000000000000000, -0.000000000000000000, -1.000000000000000000 ) ) ;
#57 = DIRECTION ( 'NONE',  ( -1.000000000000000000, 0.000000000000000000, 0.000000000000000000 ) ) ;
#58 = DIRECTION ( 'NONE',  ( -0.000000000000000000, -0.000000000000000000, -1.000000000000000000 ) ) ;
#59 = SURFACE_STYLE_USAGE ( .BOTH. , #98 ) ;
#60 = ORIENTED_EDGE ( 'NONE', *, *, #12, .T. ) ;
#61 = CYLINDRICAL_SURFACE ( 'NONE', #114, 22.14999999999999503 ) ;
#62 = AXIS2_PLACEMENT_3D ( 'NONE', #148, #58, #57 ) ;
#63 = EDGE_CURVE ( 'NONE', #201, #157, #134, .T. ) ;
#64 = APPLICATION_PROTOCOL_DEFINITION ( 'draft international standard', 'automotive_design', 1998, #97 ) ;
#65 = CARTESIAN_POINT ( 'NONE',  ( 0.000000000000000000, 0.000000000000000000, 3000.000000000000000 ) ) ;
#66 = PLANE ( 'NONE',  #123 ) ;
#67 = ORIENTED_EDGE ( 'NONE', *, *, #152, .F. ) ;
#68 = VERTEX_POINT ( 'NONE', #190 ) ;
#69 = CARTESIAN_POINT ( 'NONE',  ( 0.000000000000000000, 0.000000000000000000, 0.000000000000000000 ) ) ;
#70 = AXIS2_PLACEMENT_3D ( 'NONE', #189, #74, #126 ) ;
#71 = STYLED_ITEM ( 'NONE', ( #113 ), #3 ) ;
#72 = EDGE_CURVE ( 'NONE', #16, #158, #77, .T. ) ;
#73 = VECTOR ( 'NONE', #56, 1000.000000000000000 ) ;
#74 = DIRECTION ( 'NONE',  ( -0.000000000000000000, 0.000000000000000000, 1.000000000000000000 ) ) ;
#75 = ORIENTED_EDGE ( 'NONE', *, *, #207, .F. ) ;
#76 = DIRECTION ( 'NONE',  ( -0.000000000000000000, -0.000000000000000000, -1.000000000000000000 ) ) ;
#77 = CIRCLE ( 'NONE', #70, 24.14999999999999858 ) ;
#78 = ADVANCED_FACE ( 'NONE', ( #21, #38 ), #145, .F. ) ;
#79 = CYLINDRICAL_SURFACE ( 'NONE', #62, 24.14999999999999858 ) ;
#80 = DIRECTION ( 'NONE',  ( -0.000000000000000000, -0.000000000000000000, -1.000000000000000000 ) ) ;
#81 = EDGE_CURVE ( 'NONE', #158, #140, #204, .T. ) ;
#82 = CARTESIAN_POINT ( 'NONE',  ( 0.000000000000000000, 0.000000000000000000, 0.000000000000000000 ) ) ;
#83 = CLOSED_SHELL ( 'NONE', ( #93, #46, #43, #78, #107, #192 ) ) ;
#84 = CARTESIAN_POINT ( 'NONE',  ( 0.000000000000000000, 0.000000000000000000, 3000.000000000000000 ) ) ;
#85 = FACE_BOUND ( 'NONE', #88, .T. ) ;
#86 = CARTESIAN_POINT ( 'NONE',  ( 0.000000000000000000, 0.000000000000000000, 3000.000000000000000 ) ) ;
#87 = ORIENTED_EDGE ( 'NONE', *, *, #52, .T. ) ;
#88 = EDGE_LOOP ( 'NONE', ( #90, #47 ) ) ;
#89 = VECTOR ( 'NONE', #4, 1000.000000000000000 ) ;
#90 = ORIENTED_EDGE ( 'NONE', *, *, #12, .F. ) ;
#91 = DIRECTION ( 'NONE',  ( -1.000000000000000000, 0.000000000000000000, 0.000000000000000000 ) ) ;
#92 = CARTESIAN_POINT ( 'NONE',  ( 0.000000000000000000, 0.000000000000000000, 0.000000000000000000 ) ) ;
#93 = ADVANCED_FACE ( 'NONE', ( #106 ), #61, .F. ) ;
#94 = ORIENTED_EDGE ( 'NONE', *, *, #105, .F. ) ;
#95 = DIRECTION ( 'NONE',  ( 1.000000000000000000, 0.000000000000000000, 0.000000000000000000 ) ) ;
#96 = CARTESIAN_POINT ( 'NONE',  ( 22.14999999999999503, 2.712592660111386845E-15, 3000.000000000000000 ) ) ;
#97 = APPLICATION_CONTEXT ( 'automotive_design' ) ;
#98 = SURFACE_SIDE_STYLE ('',( #23 ) ) ;
#99 = AXIS2_PLACEMENT_3D ( 'NONE', #69, #142, #34 ) ;
#100 = CARTESIAN_POINT ( 'NONE',  ( -24.14999999999999858, 0.000000000000000000, 0.000000000000000000 ) ) ;
#101 = DIRECTION ( 'NONE',  ( -0.000000000000000000, 0.000000000000000000, 1.000000000000000000 ) ) ;
#102 = CARTESIAN_POINT ( 'NONE',  ( 0.000000000000000000, 0.000000000000000000, 3000.000000000000000 ) ) ;
#103 = VERTEX_POINT ( 'NONE', #25 ) ;
#104 = ORIENTED_EDGE ( 'NONE', *, *, #170, .T. ) ;
#105 = EDGE_CURVE ( 'NONE', #68, #201, #165, .T. ) ;
#106 = FACE_OUTER_BOUND ( 'NONE', #125, .T. ) ;
#107 = ADVANCED_FACE ( 'NONE', ( #6 ), #79, .T. ) ;
#108 = CYLINDRICAL_SURFACE ( 'NONE', #195, 24.14999999999999858 ) ;
#109 = CARTESIAN_POINT ( 'NONE',  ( 0.000000000000000000, 0.000000000000000000, 3000.000000000000000 ) ) ;
#110 = DIRECTION ( 'NONE',  ( -0.000000000000000000, 0.000000000000000000, 1.000000000000000000 ) ) ;
#111 = LINE ( 'NONE', #39, #44 ) ;
#112 = ORIENTED_EDGE ( 'NONE', *, *, #81, .F. ) ;
#113 = PRESENTATION_STYLE_ASSIGNMENT (( #59 ) ) ;
#114 = AXIS2_PLACEMENT_3D ( 'NONE', #84, #80, #206 ) ;
#115 = CIRCLE ( 'NONE', #17, 22.14999999999999503 ) ;
#116 = CARTESIAN_POINT ( 'NONE',  ( 24.14999999999999858, 2.957522019940857930E-15, 3000.000000000000000 ) ) ;
#117 = FILL_AREA_STYLE ('',( #11 ) ) ;
#118 = ORIENTED_EDGE ( 'NONE', *, *, #105, .T. ) ;
#119 = ORIENTED_EDGE ( 'NONE', *, *, #152, .T. ) ;
#120 = EDGE_LOOP ( 'NONE', ( #33, #87, #186, #112 ) ) ;
#121 = ORIENTED_EDGE ( 'NONE', *, *, #129, .T. ) ;
#122 = SHAPE_DEFINITION_REPRESENTATION ( #51, #3 ) ;
#123 = AXIS2_PLACEMENT_3D ( 'NONE', #102, #2, #53 ) ;
#124 = PRODUCT ( 'A_48,3x2-6000', 'A_48,3x2-6000', '', ( #49 ) ) ;
#125 = EDGE_LOOP ( 'NONE', ( #60, #118, #67, #133 ) ) ;
#126 = DIRECTION ( 'NONE',  ( 1.000000000000000000, 0.000000000000000000, 0.000000000000000000 ) ) ;
#127 = PRODUCT_DEFINITION_FORMATION_WITH_SPECIFIED_SOURCE ( 'LIBOVOLNÝ', '', #124, .NOT_KNOWN. ) ;
#128 = DIRECTION ( 'NONE',  ( 1.000000000000000000, 0.000000000000000000, 0.000000000000000000 ) ) ;
#129 = EDGE_CURVE ( 'NONE', #103, #157, #111, .T. ) ;
#130 = DIRECTION ( 'NONE',  ( -0.000000000000000000, -0.000000000000000000, -1.000000000000000000 ) ) ;
#131 = FACE_OUTER_BOUND ( 'NONE', #184, .T. ) ;
#132 = CIRCLE ( 'NONE', #55, 22.14999999999999503 ) ;
#133 = ORIENTED_EDGE ( 'NONE', *, *, #129, .F. ) ;
#134 = CIRCLE ( 'NONE', #35, 22.14999999999999503 ) ;
#135 = ORIENTED_EDGE ( 'NONE', *, *, #63, .F. ) ;
#136 = CYLINDRICAL_SURFACE ( 'NONE', #173, 22.14999999999999503 ) ;
#137 =( LENGTH_UNIT ( ) NAMED_UNIT ( * ) SI_UNIT ( .MILLI., .METRE. ) );
#138 = FACE_OUTER_BOUND ( 'NONE', #141, .T. ) ;
#139 = APPLICATION_CONTEXT ( 'automotive_design' ) ;
#140 = VERTEX_POINT ( 'NONE', #100 ) ;
#141 = EDGE_LOOP ( 'NONE', ( #213, #14 ) ) ;
#142 = DIRECTION ( 'NONE',  ( 0.000000000000000000, 0.000000000000000000, 1.000000000000000000 ) ) ;
#143 =( GEOMETRIC_REPRESENTATION_CONTEXT ( 3 ) GLOBAL_UNCERTAINTY_ASSIGNED_CONTEXT ( ( #203 ) ) GLOBAL_UNIT_ASSIGNED_CONTEXT ( ( #8, #166, #194 ) ) REPRESENTATION_CONTEXT ( 'NONE', 'WORKASPACE' ) );
#144 = STYLED_ITEM ( 'NONE', ( #13 ), #42 ) ;
#145 = PLANE ( 'NONE',  #27 ) ;
#146 = DIRECTION ( 'NONE',  ( -0.000000000000000000, 0.000000000000000000, 1.000000000000000000 ) ) ;
#147 = AXIS2_PLACEMENT_3D ( 'NONE', #82, #208, #40 ) ;
#148 = CARTESIAN_POINT ( 'NONE',  ( 0.000000000000000000, 0.000000000000000000, 3000.000000000000000 ) ) ;
#149 = CARTESIAN_POINT ( 'NONE',  ( -24.14999999999999858, 0.000000000000000000, 3000.000000000000000 ) ) ;
#150 = CARTESIAN_POINT ( 'NONE',  ( -22.14999999999999503, 0.000000000000000000, 0.000000000000000000 ) ) ;
#151 = MECHANICAL_DESIGN_GEOMETRIC_PRESENTATION_REPRESENTATION (  '', ( #144 ), #176 ) ;
#152 = EDGE_CURVE ( 'NONE', #157, #201, #132, .T. ) ;
#153 = DIRECTION ( 'NONE',  ( 1.000000000000000000, 0.000000000000000000, 0.000000000000000000 ) ) ;
#154 = SURFACE_STYLE_USAGE ( .BOTH. , #183 ) ;
#155 = ORIENTED_EDGE ( 'NONE', *, *, #52, .F. ) ;
#156 = UNCERTAINTY_MEASURE_WITH_UNIT (LENGTH_MEASURE( 1.000000000000000082E-05 ), #26, 'distance_accuracy_value', 'NONE');
#157 = VERTEX_POINT ( 'NONE', #150 ) ;
#158 = VERTEX_POINT ( 'NONE', #149 ) ;
#159 = COLOUR_RGB ( '',0.6156862745098039547, 0.6431372549019607199, 0.6745098039215686736 ) ;
#160 = CIRCLE ( 'NONE', #210, 24.14999999999999858 ) ;
#161 = EDGE_CURVE ( 'NONE', #68, #103, #115, .T. ) ;
#162 = UNCERTAINTY_MEASURE_WITH_UNIT (LENGTH_MEASURE( 1.000000000000000082E-05 ), #137, 'distance_accuracy_value', 'NONE');
#163 = DIRECTION ( 'NONE',  ( -0.000000000000000000, 0.000000000000000000, 1.000000000000000000 ) ) ;
#164 = DIRECTION ( 'NONE',  ( 1.000000000000000000, 0.000000000000000000, 0.000000000000000000 ) ) ;
#165 = LINE ( 'NONE', #96, #89 ) ;
#166 =( NAMED_UNIT ( * ) PLANE_ANGLE_UNIT ( ) SI_UNIT ( $, .RADIAN. ) );
#167 = DIRECTION ( 'NONE',  ( -0.000000000000000000, 0.000000000000000000, 1.000000000000000000 ) ) ;
#168 = CIRCLE ( 'NONE', #181, 24.14999999999999858 ) ;
#169 = ORIENTED_EDGE ( 'NONE', *, *, #161, .T. ) ;
#170 = EDGE_CURVE ( 'NONE', #140, #7, #196, .T. ) ;
#171 = DIRECTION ( 'NONE',  ( 1.000000000000000000, 0.000000000000000000, 0.000000000000000000 ) ) ;
#172 = EDGE_LOOP ( 'NONE', ( #119, #199 ) ) ;
#173 = AXIS2_PLACEMENT_3D ( 'NONE', #109, #41, #179 ) ;
#174 = CARTESIAN_POINT ( 'NONE',  ( 0.000000000000000000, 0.000000000000000000, 3000.000000000000000 ) ) ;
#175 = CARTESIAN_POINT ( 'NONE',  ( 24.14999999999999858, 2.957522019940857930E-15, 3000.000000000000000 ) ) ;
#176 =( GEOMETRIC_REPRESENTATION_CONTEXT ( 3 ) GLOBAL_UNCERTAINTY_ASSIGNED_CONTEXT ( ( #162 ) ) GLOBAL_UNIT_ASSIGNED_CONTEXT ( ( #137, #197, #31 ) ) REPRESENTATION_CONTEXT ( 'NONE', 'WORKASPACE' ) );
#177 = CARTESIAN_POINT ( 'NONE',  ( 22.14999999999999503, 2.712592660111386845E-15, 0.000000000000000000 ) ) ;
#178 = PRODUCT_RELATED_PRODUCT_CATEGORY ( 'part', '', ( #124 ) ) ;
#179 = DIRECTION ( 'NONE',  ( -1.000000000000000000, 0.000000000000000000, 0.000000000000000000 ) ) ;
#180 = ORIENTED_EDGE ( 'NONE', *, *, #22, .F. ) ;
#181 = AXIS2_PLACEMENT_3D ( 'NONE', #24, #167, #95 ) ;
#182 = APPLICATION_PROTOCOL_DEFINITION ( 'draft international standard', 'automotive_design', 1998, #139 ) ;
#183 = SURFACE_SIDE_STYLE ('',( #29 ) ) ;
#184 = EDGE_LOOP ( 'NONE', ( #94, #169, #121, #135 ) ) ;
#185 = EDGE_LOOP ( 'NONE', ( #155, #180, #48, #104 ) ) ;
#186 = ORIENTED_EDGE ( 'NONE', *, *, #207, .T. ) ;
#187 =( NAMED_UNIT ( * ) PLANE_ANGLE_UNIT ( ) SI_UNIT ( $, .RADIAN. ) );
#188 =( GEOMETRIC_REPRESENTATION_CONTEXT ( 3 ) GLOBAL_UNCERTAINTY_ASSIGNED_CONTEXT ( ( #156 ) ) GLOBAL_UNIT_ASSIGNED_CONTEXT ( ( #26, #187, #15 ) ) REPRESENTATION_CONTEXT ( 'NONE', 'WORKASPACE' ) );
#189 = CARTESIAN_POINT ( 'NONE',  ( 0.000000000000000000, 0.000000000000000000, 3000.000000000000000 ) ) ;
#190 = CARTESIAN_POINT ( 'NONE',  ( 22.14999999999999503, 2.712592660111386845E-15, 3000.000000000000000 ) ) ;
#191 = DIRECTION ( 'NONE',  ( -0.000000000000000000, 0.000000000000000000, 1.000000000000000000 ) ) ;
#192 = ADVANCED_FACE ( 'NONE', ( #131 ), #136, .F. ) ;
#193 = CARTESIAN_POINT ( 'NONE',  ( 0.000000000000000000, 0.000000000000000000, 0.000000000000000000 ) ) ;
#194 =( NAMED_UNIT ( * ) SI_UNIT ( $, .STERADIAN. ) SOLID_ANGLE_UNIT ( ) );
#195 = AXIS2_PLACEMENT_3D ( 'NONE', #174, #76, #91 ) ;
#196 = CIRCLE ( 'NONE', #147, 24.14999999999999858 ) ;
#197 =( NAMED_UNIT ( * ) PLANE_ANGLE_UNIT ( ) SI_UNIT ( $, .RADIAN. ) );
#198 = DIRECTION ( 'NONE',  ( 1.000000000000000000, 0.000000000000000000, 0.000000000000000000 ) ) ;
#199 = ORIENTED_EDGE ( 'NONE', *, *, #63, .T. ) ;
#200 = PRODUCT_DEFINITION_CONTEXT ( 'detailed design', #97, 'design' ) ;
#201 = VERTEX_POINT ( 'NONE', #177 ) ;
#202 = COLOUR_RGB ( '',0.6156862745098039547, 0.6431372549019607199, 0.6745098039215686736 ) ;
#203 = UNCERTAINTY_MEASURE_WITH_UNIT (LENGTH_MEASURE( 1.000000000000000082E-05 ), #8, 'distance_accuracy_value', 'NONE');
#204 = LINE ( 'NONE', #36, #54 ) ;
#205 = FACE_OUTER_BOUND ( 'NONE', #120, .T. ) ;
#206 = DIRECTION ( 'NONE',  ( -1.000000000000000000, 0.000000000000000000, 0.000000000000000000 ) ) ;
#207 = EDGE_CURVE ( 'NONE', #7, #140, #168, .T. ) ;
#208 = DIRECTION ( 'NONE',  ( -0.000000000000000000, 0.000000000000000000, 1.000000000000000000 ) ) ;
#209 = FILL_AREA_STYLE_COLOUR ( '', #159 ) ;
#210 = AXIS2_PLACEMENT_3D ( 'NONE', #65, #101, #171 ) ;
#211 = CARTESIAN_POINT ( 'NONE',  ( 0.000000000000000000, 0.000000000000000000, 3000.000000000000000 ) ) ;
#212 = DIRECTION ( 'NONE',  ( -0.000000000000000000, 0.000000000000000000, 1.000000000000000000 ) ) ;
#213 = ORIENTED_EDGE ( 'NONE', *, *, #22, .T. ) ;
#214 = ORIENTED_EDGE ( 'NONE', *, *, #170, .F. ) ;
ENDSEC;
END-ISO-10303-21;
