ISO-10303-21;
HEADER;
FILE_DESCRIPTION (( 'STEP AP214' ),
    '1' );
FILE_NAME ('A_48,3x2-3000.STEP',
    '2021-03-15T08:56:38',
    ( '' ),
    ( '' ),
    'SwSTEP 2.0',
    'SolidWorks 2019',
    '' );
FILE_SCHEMA (( 'AUTOMOTIVE_DESIGN' ));
ENDSEC;

DATA;
#1 = VERTEX_POINT ( 'NONE', #5 ) ;
#2 = CIRCLE ( 'NONE', #90, 24.14999999999999858 ) ;
#3 = CIRCLE ( 'NONE', #208, 24.14999999999999858 ) ;
#4 = EDGE_CURVE ( 'NONE', #190, #88, #92, .T. ) ;
#5 = CARTESIAN_POINT ( 'NONE',  ( 22.14999999999999503, 2.712592660111386845E-15, 0.000000000000000000 ) ) ;
#6 = ORIENTED_EDGE ( 'NONE', *, *, #213, .T. ) ;
#7 = CARTESIAN_POINT ( 'NONE',  ( 0.000000000000000000, 0.000000000000000000, 3000.000000000000000 ) ) ;
#8 = ORIENTED_EDGE ( 'NONE', *, *, #146, .T. ) ;
#9 = UNCERTAINTY_MEASURE_WITH_UNIT (LENGTH_MEASURE( 1.000000000000000082E-05 ), #168, 'distance_accuracy_value', 'NONE');
#10 = DIRECTION ( 'NONE',  ( 1.000000000000000000, 0.000000000000000000, 0.000000000000000000 ) ) ;
#11 = CARTESIAN_POINT ( 'NONE',  ( -22.14999999999999503, 0.000000000000000000, 3000.000000000000000 ) ) ;
#12 = CARTESIAN_POINT ( 'NONE',  ( 0.000000000000000000, 0.000000000000000000, 3000.000000000000000 ) ) ;
#13 = CARTESIAN_POINT ( 'NONE',  ( 0.000000000000000000, 0.000000000000000000, 0.000000000000000000 ) ) ;
#14 = APPLICATION_PROTOCOL_DEFINITION ( 'draft international standard', 'automotive_design', 1998, #197 ) ;
#15 = DIRECTION ( 'NONE',  ( 1.000000000000000000, 0.000000000000000000, 0.000000000000000000 ) ) ;
#16 = COLOUR_RGB ( '',0.6156862745098039547, 0.6431372549019607199, 0.6745098039215686736 ) ;
#17 =( NAMED_UNIT ( * ) PLANE_ANGLE_UNIT ( ) SI_UNIT ( $, .RADIAN. ) );
#18 = PRODUCT_CONTEXT ( 'NONE', #197, 'mechanical' ) ;
#19 = MECHANICAL_DESIGN_GEOMETRIC_PRESENTATION_REPRESENTATION (  '', ( #71 ), #77 ) ;
#20 = ORIENTED_EDGE ( 'NONE', *, *, #39, .T. ) ;
#21 = ORIENTED_EDGE ( 'NONE', *, *, #58, .T. ) ;
#22 = ORIENTED_EDGE ( 'NONE', *, *, #162, .T. ) ;
#23 = ADVANCED_FACE ( 'NONE', ( #141 ), #45, .T. ) ;
#24 = ORIENTED_EDGE ( 'NONE', *, *, #87, .T. ) ;
#25 = CARTESIAN_POINT ( 'NONE',  ( 0.000000000000000000, 0.000000000000000000, 3000.000000000000000 ) ) ;
#26 = DIRECTION ( 'NONE',  ( 1.000000000000000000, 0.000000000000000000, 0.000000000000000000 ) ) ;
#27 = SURFACE_STYLE_USAGE ( .BOTH. , #202 ) ;
#28 = CARTESIAN_POINT ( 'NONE',  ( 0.000000000000000000, 0.000000000000000000, 3000.000000000000000 ) ) ;
#29 = DIRECTION ( 'NONE',  ( -0.000000000000000000, 0.000000000000000000, 1.000000000000000000 ) ) ;
#30 = DIRECTION ( 'NONE',  ( -0.000000000000000000, -0.000000000000000000, -1.000000000000000000 ) ) ;
#31 = AXIS2_PLACEMENT_3D ( 'NONE', #7, #67, #26 ) ;
#32 = PLANE ( 'NONE',  #148 ) ;
#33 = CLOSED_SHELL ( 'NONE', ( #91, #23, #127, #108, #73, #116 ) ) ;
#34 = MECHANICAL_DESIGN_GEOMETRIC_PRESENTATION_REPRESENTATION (  '', ( #193 ), #106 ) ;
#35 = AXIS2_PLACEMENT_3D ( 'NONE', #210, #187, #139 ) ;
#36 = PRODUCT_DEFINITION_FORMATION_WITH_SPECIFIED_SOURCE ( 'LIBOVOLNÝ', '', #182, .NOT_KNOWN. ) ;
#37 = EDGE_LOOP ( 'NONE', ( #181, #89 ) ) ;
#38 = PRODUCT_DEFINITION_SHAPE ( 'NONE', 'NONE',  #176 ) ;
#39 = EDGE_CURVE ( 'NONE', #150, #190, #183, .T. ) ;
#40 = ORIENTED_EDGE ( 'NONE', *, *, #213, .F. ) ;
#41 = CIRCLE ( 'NONE', #50, 22.14999999999999503 ) ;
#42 = DIRECTION ( 'NONE',  ( -0.000000000000000000, 0.000000000000000000, 1.000000000000000000 ) ) ;
#43 =( NAMED_UNIT ( * ) PLANE_ANGLE_UNIT ( ) SI_UNIT ( $, .RADIAN. ) );
#44 = DIRECTION ( 'NONE',  ( -0.000000000000000000, -0.000000000000000000, -1.000000000000000000 ) ) ;
#45 = CYLINDRICAL_SURFACE ( 'NONE', #69, 24.14999999999999858 ) ;
#46 = CARTESIAN_POINT ( 'NONE',  ( 24.14999999999999858, 2.957522019940857930E-15, 3000.000000000000000 ) ) ;
#47 = FACE_OUTER_BOUND ( 'NONE', #169, .T. ) ;
#48 = PRESENTATION_LAYER_ASSIGNMENT (  '', '', ( #193 ) ) ;
#49 = MANIFOLD_SOLID_BREP ( 'Vysunout tenkostìnný1', #33 ) ;
#50 = AXIS2_PLACEMENT_3D ( 'NONE', #82, #57, #80 ) ;
#51 = ORIENTED_EDGE ( 'NONE', *, *, #162, .F. ) ;
#52 = AXIS2_PLACEMENT_3D ( 'NONE', #56, #153, #124 ) ;
#53 = EDGE_CURVE ( 'NONE', #190, #150, #2, .T. ) ;
#54 = VECTOR ( 'NONE', #159, 1000.000000000000000 ) ;
#55 = EDGE_LOOP ( 'NONE', ( #163, #24, #21, #107 ) ) ;
#56 = CARTESIAN_POINT ( 'NONE',  ( 0.000000000000000000, 0.000000000000000000, 3000.000000000000000 ) ) ;
#57 = DIRECTION ( 'NONE',  ( -0.000000000000000000, 0.000000000000000000, 1.000000000000000000 ) ) ;
#58 = EDGE_CURVE ( 'NONE', #198, #165, #171, .T. ) ;
#59 = ORIENTED_EDGE ( 'NONE', *, *, #4, .F. ) ;
#60 = UNCERTAINTY_MEASURE_WITH_UNIT (LENGTH_MEASURE( 1.000000000000000082E-05 ), #212, 'distance_accuracy_value', 'NONE');
#61 = CARTESIAN_POINT ( 'NONE',  ( -22.14999999999999503, 0.000000000000000000, 3000.000000000000000 ) ) ;
#62 = SURFACE_SIDE_STYLE ('',( #196 ) ) ;
#63 = CARTESIAN_POINT ( 'NONE',  ( 0.000000000000000000, 0.000000000000000000, 3000.000000000000000 ) ) ;
#64 = CARTESIAN_POINT ( 'NONE',  ( 0.000000000000000000, 0.000000000000000000, 0.000000000000000000 ) ) ;
#65 = DIRECTION ( 'NONE',  ( -1.000000000000000000, 0.000000000000000000, 0.000000000000000000 ) ) ;
#66 = SURFACE_STYLE_USAGE ( .BOTH. , #62 ) ;
#67 = DIRECTION ( 'NONE',  ( -0.000000000000000000, 0.000000000000000000, 1.000000000000000000 ) ) ;
#68 = EDGE_CURVE ( 'NONE', #198, #135, #86, .T. ) ;
#69 = AXIS2_PLACEMENT_3D ( 'NONE', #75, #170, #188 ) ;
#70 = CIRCLE ( 'NONE', #166, 22.14999999999999503 ) ;
#71 = STYLED_ITEM ( 'NONE', ( #99 ), #140 ) ;
#72 = ORIENTED_EDGE ( 'NONE', *, *, #87, .F. ) ;
#73 = ADVANCED_FACE ( 'NONE', ( #47 ), #126, .T. ) ;
#74 = COLOUR_RGB ( '',0.6156862745098039547, 0.6431372549019607199, 0.6745098039215686736 ) ;
#75 = CARTESIAN_POINT ( 'NONE',  ( 0.000000000000000000, 0.000000000000000000, 3000.000000000000000 ) ) ;
#76 = FILL_AREA_STYLE_COLOUR ( '', #74 ) ;
#77 =( GEOMETRIC_REPRESENTATION_CONTEXT ( 3 ) GLOBAL_UNCERTAINTY_ASSIGNED_CONTEXT ( ( #60 ) ) GLOBAL_UNIT_ASSIGNED_CONTEXT ( ( #212, #17, #209 ) ) REPRESENTATION_CONTEXT ( 'NONE', 'WORKASPACE' ) );
#78 = LINE ( 'NONE', #192, #178 ) ;
#79 = CARTESIAN_POINT ( 'NONE',  ( -24.14999999999999858, 0.000000000000000000, 3000.000000000000000 ) ) ;
#80 = DIRECTION ( 'NONE',  ( 1.000000000000000000, 0.000000000000000000, 0.000000000000000000 ) ) ;
#81 = AXIS2_PLACEMENT_3D ( 'NONE', #63, #30, #65 ) ;
#82 = CARTESIAN_POINT ( 'NONE',  ( 0.000000000000000000, 0.000000000000000000, 0.000000000000000000 ) ) ;
#83 = DIRECTION ( 'NONE',  ( -0.000000000000000000, -0.000000000000000000, -1.000000000000000000 ) ) ;
#84 =( NAMED_UNIT ( * ) SI_UNIT ( $, .STERADIAN. ) SOLID_ANGLE_UNIT ( ) );
#85 = APPLICATION_PROTOCOL_DEFINITION ( 'draft international standard', 'automotive_design', 1998, #211 ) ;
#86 = CIRCLE ( 'NONE', #31, 22.14999999999999503 ) ;
#87 = EDGE_CURVE ( 'NONE', #135, #198, #70, .T. ) ;
#88 = VERTEX_POINT ( 'NONE', #118 ) ;
#89 = ORIENTED_EDGE ( 'NONE', *, *, #172, .T. ) ;
#90 = AXIS2_PLACEMENT_3D ( 'NONE', #25, #125, #207 ) ;
#91 = ADVANCED_FACE ( 'NONE', ( #93 ), #177, .F. ) ;
#92 = LINE ( 'NONE', #79, #129 ) ;
#93 = FACE_OUTER_BOUND ( 'NONE', #111, .T. ) ;
#94 = PRESENTATION_STYLE_ASSIGNMENT (( #27 ) ) ;
#95 = UNCERTAINTY_MEASURE_WITH_UNIT (LENGTH_MEASURE( 1.000000000000000082E-05 ), #186, 'distance_accuracy_value', 'NONE');
#96 = CARTESIAN_POINT ( 'NONE',  ( -22.14999999999999503, 0.000000000000000000, 0.000000000000000000 ) ) ;
#97 = PRODUCT_RELATED_PRODUCT_CATEGORY ( 'part', '', ( #182 ) ) ;
#98 = CARTESIAN_POINT ( 'NONE',  ( 22.14999999999999503, 2.712592660111386845E-15, 3000.000000000000000 ) ) ;
#99 = PRESENTATION_STYLE_ASSIGNMENT (( #66 ) ) ;
#100 = VECTOR ( 'NONE', #83, 1000.000000000000000 ) ;
#101 = LINE ( 'NONE', #98, #54 ) ;
#102 = DIRECTION ( 'NONE',  ( 1.000000000000000000, 0.000000000000000000, 0.000000000000000000 ) ) ;
#103 = FACE_OUTER_BOUND ( 'NONE', #55, .T. ) ;
#104 = EDGE_CURVE ( 'NONE', #135, #1, #101, .T. ) ;
#105 = DIRECTION ( 'NONE',  ( 0.000000000000000000, 0.000000000000000000, 1.000000000000000000 ) ) ;
#106 =( GEOMETRIC_REPRESENTATION_CONTEXT ( 3 ) GLOBAL_UNCERTAINTY_ASSIGNED_CONTEXT ( ( #95 ) ) GLOBAL_UNIT_ASSIGNED_CONTEXT ( ( #186, #43, #123 ) ) REPRESENTATION_CONTEXT ( 'NONE', 'WORKASPACE' ) );
#107 = ORIENTED_EDGE ( 'NONE', *, *, #172, .F. ) ;
#108 = ADVANCED_FACE ( 'NONE', ( #117, #119 ), #156, .F. ) ;
#109 = ORIENTED_EDGE ( 'NONE', *, *, #152, .F. ) ;
#110 = DIRECTION ( 'NONE',  ( 1.000000000000000000, 0.000000000000000000, 0.000000000000000000 ) ) ;
#111 = EDGE_LOOP ( 'NONE', ( #167, #122, #109, #120 ) ) ;
#112 = ORIENTED_EDGE ( 'NONE', *, *, #39, .F. ) ;
#113 = DIRECTION ( 'NONE',  ( -0.000000000000000000, 0.000000000000000000, 1.000000000000000000 ) ) ;
#114 = VERTEX_POINT ( 'NONE', #144 ) ;
#115 = DIRECTION ( 'NONE',  ( -1.000000000000000000, 0.000000000000000000, 0.000000000000000000 ) ) ;
#116 = ADVANCED_FACE ( 'NONE', ( #103 ), #195, .F. ) ;
#117 = FACE_OUTER_BOUND ( 'NONE', #199, .T. ) ;
#118 = CARTESIAN_POINT ( 'NONE',  ( -24.14999999999999858, 0.000000000000000000, 0.000000000000000000 ) ) ;
#119 = FACE_BOUND ( 'NONE', #37, .T. ) ;
#120 = ORIENTED_EDGE ( 'NONE', *, *, #58, .F. ) ;
#121 = EDGE_LOOP ( 'NONE', ( #131, #20 ) ) ;
#122 = ORIENTED_EDGE ( 'NONE', *, *, #104, .T. ) ;
#123 =( NAMED_UNIT ( * ) SI_UNIT ( $, .STERADIAN. ) SOLID_ANGLE_UNIT ( ) );
#124 = DIRECTION ( 'NONE',  ( 1.000000000000000000, 0.000000000000000000, 0.000000000000000000 ) ) ;
#125 = DIRECTION ( 'NONE',  ( -0.000000000000000000, 0.000000000000000000, 1.000000000000000000 ) ) ;
#126 = CYLINDRICAL_SURFACE ( 'NONE', #143, 24.14999999999999858 ) ;
#127 = ADVANCED_FACE ( 'NONE', ( #154, #179 ), #32, .T. ) ;
#128 = FILL_AREA_STYLE ('',( #157 ) ) ;
#129 = VECTOR ( 'NONE', #204, 1000.000000000000000 ) ;
#130 =( GEOMETRIC_REPRESENTATION_CONTEXT ( 3 ) GLOBAL_UNCERTAINTY_ASSIGNED_CONTEXT ( ( #9 ) ) GLOBAL_UNIT_ASSIGNED_CONTEXT ( ( #168, #137, #84 ) ) REPRESENTATION_CONTEXT ( 'NONE', 'WORKASPACE' ) );
#131 = ORIENTED_EDGE ( 'NONE', *, *, #53, .T. ) ;
#132 = EDGE_LOOP ( 'NONE', ( #112, #8, #22, #59 ) ) ;
#133 = ORIENTED_EDGE ( 'NONE', *, *, #53, .F. ) ;
#134 = CARTESIAN_POINT ( 'NONE',  ( 0.000000000000000000, 0.000000000000000000, 0.000000000000000000 ) ) ;
#135 = VERTEX_POINT ( 'NONE', #205 ) ;
#136 = CIRCLE ( 'NONE', #35, 22.14999999999999503 ) ;
#137 =( NAMED_UNIT ( * ) PLANE_ANGLE_UNIT ( ) SI_UNIT ( $, .RADIAN. ) );
#138 = FILL_AREA_STYLE ('',( #76 ) ) ;
#139 = DIRECTION ( 'NONE',  ( 1.000000000000000000, 0.000000000000000000, 0.000000000000000000 ) ) ;
#140 = ADVANCED_BREP_SHAPE_REPRESENTATION ( 'A_48,3x2-3000', ( #49, #164 ), #130 ) ;
#141 = FACE_OUTER_BOUND ( 'NONE', #132, .T. ) ;
#142 = CARTESIAN_POINT ( 'NONE',  ( -24.14999999999999858, 0.000000000000000000, 3000.000000000000000 ) ) ;
#143 = AXIS2_PLACEMENT_3D ( 'NONE', #28, #194, #206 ) ;
#144 = CARTESIAN_POINT ( 'NONE',  ( 24.14999999999999858, 2.957522019940857930E-15, 0.000000000000000000 ) ) ;
#145 = DIRECTION ( 'NONE',  ( -0.000000000000000000, -0.000000000000000000, -1.000000000000000000 ) ) ;
#146 = EDGE_CURVE ( 'NONE', #150, #114, #78, .T. ) ;
#147 = SHAPE_DEFINITION_REPRESENTATION ( #38, #140 ) ;
#148 = AXIS2_PLACEMENT_3D ( 'NONE', #174, #160, #15 ) ;
#149 = ORIENTED_EDGE ( 'NONE', *, *, #4, .T. ) ;
#150 = VERTEX_POINT ( 'NONE', #46 ) ;
#151 = ORIENTED_EDGE ( 'NONE', *, *, #146, .F. ) ;
#152 = EDGE_CURVE ( 'NONE', #165, #1, #136, .T. ) ;
#153 = DIRECTION ( 'NONE',  ( -0.000000000000000000, 0.000000000000000000, 1.000000000000000000 ) ) ;
#154 = FACE_OUTER_BOUND ( 'NONE', #121, .T. ) ;
#155 = DIRECTION ( 'NONE',  ( 1.000000000000000000, 0.000000000000000000, 0.000000000000000000 ) ) ;
#156 = PLANE ( 'NONE',  #201 ) ;
#157 = FILL_AREA_STYLE_COLOUR ( '', #16 ) ;
#158 = AXIS2_PLACEMENT_3D ( 'NONE', #189, #44, #115 ) ;
#159 = DIRECTION ( 'NONE',  ( -0.000000000000000000, -0.000000000000000000, -1.000000000000000000 ) ) ;
#160 = DIRECTION ( 'NONE',  ( -0.000000000000000000, 0.000000000000000000, 1.000000000000000000 ) ) ;
#161 = AXIS2_PLACEMENT_3D ( 'NONE', #175, #42, #203 ) ;
#162 = EDGE_CURVE ( 'NONE', #114, #88, #180, .T. ) ;
#163 = ORIENTED_EDGE ( 'NONE', *, *, #104, .F. ) ;
#164 = AXIS2_PLACEMENT_3D ( 'NONE', #64, #105, #102 ) ;
#165 = VERTEX_POINT ( 'NONE', #96 ) ;
#166 = AXIS2_PLACEMENT_3D ( 'NONE', #12, #29, #155 ) ;
#167 = ORIENTED_EDGE ( 'NONE', *, *, #68, .T. ) ;
#168 =( LENGTH_UNIT ( ) NAMED_UNIT ( * ) SI_UNIT ( .MILLI., .METRE. ) );
#169 = EDGE_LOOP ( 'NONE', ( #151, #133, #149, #6 ) ) ;
#170 = DIRECTION ( 'NONE',  ( -0.000000000000000000, -0.000000000000000000, -1.000000000000000000 ) ) ;
#171 = LINE ( 'NONE', #61, #100 ) ;
#172 = EDGE_CURVE ( 'NONE', #1, #165, #41, .T. ) ;
#173 = SURFACE_STYLE_FILL_AREA ( #138 ) ;
#174 = CARTESIAN_POINT ( 'NONE',  ( 0.000000000000000000, 0.000000000000000000, 3000.000000000000000 ) ) ;
#175 = CARTESIAN_POINT ( 'NONE',  ( 0.000000000000000000, 0.000000000000000000, 0.000000000000000000 ) ) ;
#176 = PRODUCT_DEFINITION ( 'NEZNÁMÝ', '', #36, #191 ) ;
#177 = CYLINDRICAL_SURFACE ( 'NONE', #81, 22.14999999999999503 ) ;
#178 = VECTOR ( 'NONE', #145, 1000.000000000000000 ) ;
#179 = FACE_BOUND ( 'NONE', #214, .T. ) ;
#180 = CIRCLE ( 'NONE', #161, 24.14999999999999858 ) ;
#181 = ORIENTED_EDGE ( 'NONE', *, *, #152, .T. ) ;
#182 = PRODUCT ( 'A_48,3x2-3000', 'A_48,3x2-3000', '', ( #18 ) ) ;
#183 = CIRCLE ( 'NONE', #52, 24.14999999999999858 ) ;
#184 = DIRECTION ( 'NONE',  ( -0.000000000000000000, 0.000000000000000000, 1.000000000000000000 ) ) ;
#185 = PRESENTATION_LAYER_ASSIGNMENT (  '', '', ( #71 ) ) ;
#186 =( LENGTH_UNIT ( ) NAMED_UNIT ( * ) SI_UNIT ( .MILLI., .METRE. ) );
#187 = DIRECTION ( 'NONE',  ( -0.000000000000000000, 0.000000000000000000, 1.000000000000000000 ) ) ;
#188 = DIRECTION ( 'NONE',  ( -1.000000000000000000, 0.000000000000000000, 0.000000000000000000 ) ) ;
#189 = CARTESIAN_POINT ( 'NONE',  ( 0.000000000000000000, 0.000000000000000000, 3000.000000000000000 ) ) ;
#190 = VERTEX_POINT ( 'NONE', #142 ) ;
#191 = PRODUCT_DEFINITION_CONTEXT ( 'detailed design', #211, 'design' ) ;
#192 = CARTESIAN_POINT ( 'NONE',  ( 24.14999999999999858, 2.957522019940857930E-15, 3000.000000000000000 ) ) ;
#193 = STYLED_ITEM ( 'NONE', ( #94 ), #49 ) ;
#194 = DIRECTION ( 'NONE',  ( -0.000000000000000000, -0.000000000000000000, -1.000000000000000000 ) ) ;
#195 = CYLINDRICAL_SURFACE ( 'NONE', #158, 22.14999999999999503 ) ;
#196 = SURFACE_STYLE_FILL_AREA ( #128 ) ;
#197 = APPLICATION_CONTEXT ( 'automotive_design' ) ;
#198 = VERTEX_POINT ( 'NONE', #11 ) ;
#199 = EDGE_LOOP ( 'NONE', ( #40, #51 ) ) ;
#200 = ORIENTED_EDGE ( 'NONE', *, *, #68, .F. ) ;
#201 = AXIS2_PLACEMENT_3D ( 'NONE', #13, #113, #10 ) ;
#202 = SURFACE_SIDE_STYLE ('',( #173 ) ) ;
#203 = DIRECTION ( 'NONE',  ( 1.000000000000000000, 0.000000000000000000, 0.000000000000000000 ) ) ;
#204 = DIRECTION ( 'NONE',  ( -0.000000000000000000, -0.000000000000000000, -1.000000000000000000 ) ) ;
#205 = CARTESIAN_POINT ( 'NONE',  ( 22.14999999999999503, 2.712592660111386845E-15, 3000.000000000000000 ) ) ;
#206 = DIRECTION ( 'NONE',  ( -1.000000000000000000, 0.000000000000000000, 0.000000000000000000 ) ) ;
#207 = DIRECTION ( 'NONE',  ( 1.000000000000000000, 0.000000000000000000, 0.000000000000000000 ) ) ;
#208 = AXIS2_PLACEMENT_3D ( 'NONE', #134, #184, #110 ) ;
#209 =( NAMED_UNIT ( * ) SI_UNIT ( $, .STERADIAN. ) SOLID_ANGLE_UNIT ( ) );
#210 = CARTESIAN_POINT ( 'NONE',  ( 0.000000000000000000, 0.000000000000000000, 0.000000000000000000 ) ) ;
#211 = APPLICATION_CONTEXT ( 'automotive_design' ) ;
#212 =( LENGTH_UNIT ( ) NAMED_UNIT ( * ) SI_UNIT ( .MILLI., .METRE. ) );
#213 = EDGE_CURVE ( 'NONE', #88, #114, #3, .T. ) ;
#214 = EDGE_LOOP ( 'NONE', ( #200, #72 ) ) ;
ENDSEC;
END-ISO-10303-21;
