ISO-10303-21;
HEADER;
FILE_DESCRIPTION (( 'STEP AP214' ),
    '1' );
FILE_NAME ('GS_16c76-100x80-VSG_ESG.STEP',
    '2021-04-16T14:12:09',
    ( '' ),
    ( '' ),
    'SwSTEP 2.0',
    'SolidWorks 2019',
    '' );
FILE_SCHEMA (( 'AUTOMOTIVE_DESIGN' ));
ENDSEC;

DATA;
#1 = ORIENTED_EDGE ( 'NONE', *, *, #202, .F. ) ;
#2 = VERTEX_POINT ( 'NONE', #96 ) ;
#3 = CARTESIAN_POINT ( 'NONE',  ( 800.0000000000000000, 0.000000000000000000, 0.000000000000000000 ) ) ;
#4 = LINE ( 'NONE', #157, #115 ) ;
#5 = PLANE ( 'NONE',  #80 ) ;
#6 = EDGE_CURVE ( 'NONE', #82, #11, #193, .T. ) ;
#7 = FACE_OUTER_BOUND ( 'NONE', #42, .T. ) ;
#8 = DIRECTION ( 'NONE',  ( -0.000000000000000000, -0.000000000000000000, -1.000000000000000000 ) ) ;
#9 = DIRECTION ( 'NONE',  ( 0.000000000000000000, -0.000000000000000000, 1.000000000000000000 ) ) ;
#10 =( GEOMETRIC_REPRESENTATION_CONTEXT ( 3 ) GLOBAL_UNCERTAINTY_ASSIGNED_CONTEXT ( ( #187 ) ) GLOBAL_UNIT_ASSIGNED_CONTEXT ( ( #184, #73, #196 ) ) REPRESENTATION_CONTEXT ( 'NONE', 'WORKASPACE' ) );
#11 = VERTEX_POINT ( 'NONE', #40 ) ;
#12 = CARTESIAN_POINT ( 'NONE',  ( 0.000000000000000000, 0.000000000000000000, 0.000000000000000000 ) ) ;
#13 = SURFACE_SIDE_STYLE ('',( #166 ) ) ;
#14 = SURFACE_STYLE_USAGE ( .BOTH. , #201 ) ;
#15 = APPLICATION_CONTEXT ( 'automotive_design' ) ;
#16 = DIRECTION ( 'NONE',  ( 1.000000000000000000, 0.000000000000000000, 0.000000000000000000 ) ) ;
#17 = ORIENTED_EDGE ( 'NONE', *, *, #6, .F. ) ;
#18 = PRODUCT_DEFINITION_CONTEXT ( 'detailed design', #108, 'design' ) ;
#19 = ADVANCED_FACE ( 'NONE', ( #38 ), #99, .T. ) ;
#20 = AXIS2_PLACEMENT_3D ( 'NONE', #12, #117, #28 ) ;
#21 = VERTEX_POINT ( 'NONE', #30 ) ;
#22 = VECTOR ( 'NONE', #8, 1000.000000000000000 ) ;
#23 = VERTEX_POINT ( 'NONE', #197 ) ;
#24 = CARTESIAN_POINT ( 'NONE',  ( 0.000000000000000000, 0.000000000000000000, 16.76000000000000156 ) ) ;
#25 = DIRECTION ( 'NONE',  ( 0.000000000000000000, -1.000000000000000000, 0.000000000000000000 ) ) ;
#26 = FACE_OUTER_BOUND ( 'NONE', #126, .T. ) ;
#27 = LINE ( 'NONE', #189, #32 ) ;
#28 = DIRECTION ( 'NONE',  ( -1.000000000000000000, 0.000000000000000000, -0.000000000000000000 ) ) ;
#29 = PRESENTATION_LAYER_ASSIGNMENT (  '', '', ( #119 ) ) ;
#30 = CARTESIAN_POINT ( 'NONE',  ( 800.0000000000000000, 1000.000000000000000, 0.000000000000000000 ) ) ;
#31 = SURFACE_STYLE_USAGE ( .BOTH. , #13 ) ;
#32 = VECTOR ( 'NONE', #67, 1000.000000000000000 ) ;
#33 = SURFACE_STYLE_FILL_AREA ( #88 ) ;
#34 = CARTESIAN_POINT ( 'NONE',  ( 0.000000000000000000, 0.000000000000000000, 0.000000000000000000 ) ) ;
#35 = LINE ( 'NONE', #191, #54 ) ;
#36 = DIRECTION ( 'NONE',  ( -1.000000000000000000, -0.000000000000000000, -0.000000000000000000 ) ) ;
#37 = DIRECTION ( 'NONE',  ( 0.000000000000000000, 0.000000000000000000, -1.000000000000000000 ) ) ;
#38 = FACE_OUTER_BOUND ( 'NONE', #81, .T. ) ;
#39 = ADVANCED_FACE ( 'NONE', ( #183 ), #98, .F. ) ;
#40 = CARTESIAN_POINT ( 'NONE',  ( 800.0000000000000000, 0.000000000000000000, 0.000000000000000000 ) ) ;
#41 = CARTESIAN_POINT ( 'NONE',  ( 0.000000000000000000, 0.000000000000000000, 0.000000000000000000 ) ) ;
#42 = EDGE_LOOP ( 'NONE', ( #75, #90, #1, #55 ) ) ;
#43 = MANIFOLD_SOLID_BREP ( 'Pøidat vysunutím1', #154 ) ;
#44 = VERTEX_POINT ( 'NONE', #74 ) ;
#45 = ORIENTED_EDGE ( 'NONE', *, *, #76, .T. ) ;
#46 = AXIS2_PLACEMENT_3D ( 'NONE', #134, #97, #56 ) ;
#47 = LINE ( 'NONE', #85, #195 ) ;
#48 = LINE ( 'NONE', #144, #102 ) ;
#49 = DIRECTION ( 'NONE',  ( 0.000000000000000000, 1.000000000000000000, 0.000000000000000000 ) ) ;
#50 = DIRECTION ( 'NONE',  ( -1.000000000000000000, 0.000000000000000000, -0.000000000000000000 ) ) ;
#51 = DIRECTION ( 'NONE',  ( 0.000000000000000000, 1.000000000000000000, 0.000000000000000000 ) ) ;
#52 = PRODUCT_RELATED_PRODUCT_CATEGORY ( 'part', '', ( #167 ) ) ;
#53 = ORIENTED_EDGE ( 'NONE', *, *, #132, .T. ) ;
#54 = VECTOR ( 'NONE', #112, 1000.000000000000000 ) ;
#55 = ORIENTED_EDGE ( 'NONE', *, *, #150, .T. ) ;
#56 = DIRECTION ( 'NONE',  ( 0.000000000000000000, 0.000000000000000000, 1.000000000000000000 ) ) ;
#57 = PRODUCT_CONTEXT ( 'NONE', #15, 'mechanical' ) ;
#58 = VECTOR ( 'NONE', #143, 1000.000000000000000 ) ;
#59 = PRODUCT_DEFINITION ( 'NEZNÁMÝ', '', #162, #18 ) ;
#60 = VECTOR ( 'NONE', #49, 1000.000000000000000 ) ;
#61 =( NAMED_UNIT ( * ) PLANE_ANGLE_UNIT ( ) SI_UNIT ( $, .RADIAN. ) );
#62 = ORIENTED_EDGE ( 'NONE', *, *, #113, .F. ) ;
#63 = ADVANCED_FACE ( 'NONE', ( #136 ), #198, .F. ) ;
#64 = VERTEX_POINT ( 'NONE', #72 ) ;
#65 = ORIENTED_EDGE ( 'NONE', *, *, #104, .F. ) ;
#66 = CARTESIAN_POINT ( 'NONE',  ( 0.000000000000000000, 0.000000000000000000, 16.76000000000000156 ) ) ;
#67 = DIRECTION ( 'NONE',  ( -0.000000000000000000, -1.000000000000000000, -0.000000000000000000 ) ) ;
#68 = CARTESIAN_POINT ( 'NONE',  ( 0.000000000000000000, 0.000000000000000000, 16.76000000000000156 ) ) ;
#69 = ADVANCED_FACE ( 'NONE', ( #131 ), #129, .F. ) ;
#70 = STYLED_ITEM ( 'NONE', ( #163 ), #43 ) ;
#71 = DIRECTION ( 'NONE',  ( 1.000000000000000000, 0.000000000000000000, 0.000000000000000000 ) ) ;
#72 = CARTESIAN_POINT ( 'NONE',  ( 800.0000000000000000, 0.000000000000000000, 16.76000000000000156 ) ) ;
#73 =( NAMED_UNIT ( * ) PLANE_ANGLE_UNIT ( ) SI_UNIT ( $, .RADIAN. ) );
#74 = CARTESIAN_POINT ( 'NONE',  ( 0.000000000000000000, 1000.000000000000000, 16.76000000000000156 ) ) ;
#75 = ORIENTED_EDGE ( 'NONE', *, *, #104, .T. ) ;
#76 = EDGE_CURVE ( 'NONE', #11, #21, #178, .T. ) ;
#77 =( GEOMETRIC_REPRESENTATION_CONTEXT ( 3 ) GLOBAL_UNCERTAINTY_ASSIGNED_CONTEXT ( ( #89 ) ) GLOBAL_UNIT_ASSIGNED_CONTEXT ( ( #103, #61, #171 ) ) REPRESENTATION_CONTEXT ( 'NONE', 'WORKASPACE' ) );
#78 = DIRECTION ( 'NONE',  ( 0.000000000000000000, 0.000000000000000000, 1.000000000000000000 ) ) ;
#79 = MECHANICAL_DESIGN_GEOMETRIC_PRESENTATION_REPRESENTATION (  '', ( #70 ), #10 ) ;
#80 = AXIS2_PLACEMENT_3D ( 'NONE', #94, #25, #190 ) ;
#81 = EDGE_LOOP ( 'NONE', ( #65, #62, #106, #17 ) ) ;
#82 = VERTEX_POINT ( 'NONE', #34 ) ;
#83 = LINE ( 'NONE', #66, #58 ) ;
#84 = LINE ( 'NONE', #176, #22 ) ;
#85 = CARTESIAN_POINT ( 'NONE',  ( 0.000000000000000000, 1000.000000000000000, 16.76000000000000156 ) ) ;
#86 = FILL_AREA_STYLE ('',( #149 ) ) ;
#87 = EDGE_CURVE ( 'NONE', #64, #2, #35, .T. ) ;
#88 = FILL_AREA_STYLE ('',( #122 ) ) ;
#89 = UNCERTAINTY_MEASURE_WITH_UNIT (LENGTH_MEASURE( 1.000000000000000082E-05 ), #103, 'distance_accuracy_value', 'NONE');
#90 = ORIENTED_EDGE ( 'NONE', *, *, #173, .F. ) ;
#91 = EDGE_CURVE ( 'NONE', #2, #21, #4, .T. ) ;
#92 = LINE ( 'NONE', #177, #139 ) ;
#93 = DIRECTION ( 'NONE',  ( 0.000000000000000000, 0.000000000000000000, -1.000000000000000000 ) ) ;
#94 = CARTESIAN_POINT ( 'NONE',  ( 0.000000000000000000, 1000.000000000000000, 16.76000000000000156 ) ) ;
#95 = DIRECTION ( 'NONE',  ( -0.000000000000000000, -0.000000000000000000, -1.000000000000000000 ) ) ;
#96 = CARTESIAN_POINT ( 'NONE',  ( 800.0000000000000000, 1000.000000000000000, 16.76000000000000156 ) ) ;
#97 = DIRECTION ( 'NONE',  ( -1.000000000000000000, 0.000000000000000000, 0.000000000000000000 ) ) ;
#98 = PLANE ( 'NONE',  #46 ) ;
#99 = PLANE ( 'NONE',  #20 ) ;
#100 =( NAMED_UNIT ( * ) SI_UNIT ( $, .STERADIAN. ) SOLID_ANGLE_UNIT ( ) );
#101 = CARTESIAN_POINT ( 'NONE',  ( 0.000000000000000000, 0.000000000000000000, 0.000000000000000000 ) ) ;
#102 = VECTOR ( 'NONE', #110, 1000.000000000000000 ) ;
#103 =( LENGTH_UNIT ( ) NAMED_UNIT ( * ) SI_UNIT ( .MILLI., .METRE. ) );
#104 = EDGE_CURVE ( 'NONE', #180, #82, #27, .T. ) ;
#105 =( GEOMETRIC_REPRESENTATION_CONTEXT ( 3 ) GLOBAL_UNCERTAINTY_ASSIGNED_CONTEXT ( ( #172 ) ) GLOBAL_UNIT_ASSIGNED_CONTEXT ( ( #142, #114, #100 ) ) REPRESENTATION_CONTEXT ( 'NONE', 'WORKASPACE' ) );
#106 = ORIENTED_EDGE ( 'NONE', *, *, #76, .F. ) ;
#107 = COLOUR_RGB ( '',0.7529411764705882248, 0.7529411764705882248, 0.7529411764705882248 ) ;
#108 = APPLICATION_CONTEXT ( 'automotive_design' ) ;
#109 = ORIENTED_EDGE ( 'NONE', *, *, #173, .T. ) ;
#110 = DIRECTION ( 'NONE',  ( 1.000000000000000000, 0.000000000000000000, 0.000000000000000000 ) ) ;
#111 = CARTESIAN_POINT ( 'NONE',  ( 0.000000000000000000, 1000.000000000000000, 0.000000000000000000 ) ) ;
#112 = DIRECTION ( 'NONE',  ( 0.000000000000000000, 1.000000000000000000, 0.000000000000000000 ) ) ;
#113 = EDGE_CURVE ( 'NONE', #21, #180, #92, .T. ) ;
#114 =( NAMED_UNIT ( * ) PLANE_ANGLE_UNIT ( ) SI_UNIT ( $, .RADIAN. ) );
#115 = VECTOR ( 'NONE', #95, 1000.000000000000000 ) ;
#116 = EDGE_CURVE ( 'NONE', #2, #44, #127, .T. ) ;
#117 = DIRECTION ( 'NONE',  ( 0.000000000000000000, 0.000000000000000000, -1.000000000000000000 ) ) ;
#118 = ORIENTED_EDGE ( 'NONE', *, *, #91, .F. ) ;
#119 = STYLED_ITEM ( 'NONE', ( #186 ), #124 ) ;
#120 = APPLICATION_PROTOCOL_DEFINITION ( 'draft international standard', 'automotive_design', 1998, #15 ) ;
#121 = AXIS2_PLACEMENT_3D ( 'NONE', #165, #51, #9 ) ;
#122 = FILL_AREA_STYLE_COLOUR ( '', #153 ) ;
#123 = ADVANCED_FACE ( 'NONE', ( #26 ), #5, .F. ) ;
#124 = ADVANCED_BREP_SHAPE_REPRESENTATION ( 'GS_16c76-100x80-VSG_ESG', ( #43, #128 ), #105 ) ;
#125 = ORIENTED_EDGE ( 'NONE', *, *, #150, .F. ) ;
#126 = EDGE_LOOP ( 'NONE', ( #137, #125, #182, #140 ) ) ;
#127 = LINE ( 'NONE', #192, #168 ) ;
#128 = AXIS2_PLACEMENT_3D ( 'NONE', #101, #78, #16 ) ;
#129 = PLANE ( 'NONE',  #148 ) ;
#130 = PLANE ( 'NONE',  #175 ) ;
#131 = FACE_OUTER_BOUND ( 'NONE', #174, .T. ) ;
#132 = EDGE_CURVE ( 'NONE', #64, #11, #146, .T. ) ;
#133 = VECTOR ( 'NONE', #160, 1000.000000000000000 ) ;
#134 = CARTESIAN_POINT ( 'NONE',  ( 800.0000000000000000, 0.000000000000000000, 16.76000000000000156 ) ) ;
#135 = ORIENTED_EDGE ( 'NONE', *, *, #132, .F. ) ;
#136 = FACE_OUTER_BOUND ( 'NONE', #181, .T. ) ;
#137 = ORIENTED_EDGE ( 'NONE', *, *, #113, .T. ) ;
#138 = ORIENTED_EDGE ( 'NONE', *, *, #159, .F. ) ;
#139 = VECTOR ( 'NONE', #179, 1000.000000000000000 ) ;
#140 = ORIENTED_EDGE ( 'NONE', *, *, #91, .T. ) ;
#141 = EDGE_LOOP ( 'NONE', ( #45, #118, #155, #53 ) ) ;
#142 =( LENGTH_UNIT ( ) NAMED_UNIT ( * ) SI_UNIT ( .MILLI., .METRE. ) );
#143 = DIRECTION ( 'NONE',  ( -0.000000000000000000, -1.000000000000000000, -0.000000000000000000 ) ) ;
#144 = CARTESIAN_POINT ( 'NONE',  ( 0.000000000000000000, 0.000000000000000000, 16.76000000000000156 ) ) ;
#145 = MECHANICAL_DESIGN_GEOMETRIC_PRESENTATION_REPRESENTATION (  '', ( #119 ), #77 ) ;
#146 = LINE ( 'NONE', #156, #133 ) ;
#147 = DIRECTION ( 'NONE',  ( 1.000000000000000000, 0.000000000000000000, 0.000000000000000000 ) ) ;
#148 = AXIS2_PLACEMENT_3D ( 'NONE', #68, #37, #50 ) ;
#149 = FILL_AREA_STYLE_COLOUR ( '', #107 ) ;
#150 = EDGE_CURVE ( 'NONE', #44, #180, #47, .T. ) ;
#151 = ORIENTED_EDGE ( 'NONE', *, *, #87, .T. ) ;
#152 = ORIENTED_EDGE ( 'NONE', *, *, #202, .T. ) ;
#153 = COLOUR_RGB ( '',0.7529411764705882248, 0.7529411764705882248, 0.7529411764705882248 ) ;
#154 = CLOSED_SHELL ( 'NONE', ( #199, #63, #39, #123, #69, #19 ) ) ;
#155 = ORIENTED_EDGE ( 'NONE', *, *, #87, .F. ) ;
#156 = CARTESIAN_POINT ( 'NONE',  ( 800.0000000000000000, 0.000000000000000000, 16.76000000000000156 ) ) ;
#157 = CARTESIAN_POINT ( 'NONE',  ( 800.0000000000000000, 1000.000000000000000, 16.76000000000000156 ) ) ;
#158 = DIRECTION ( 'NONE',  ( -0.000000000000000000, -0.000000000000000000, -1.000000000000000000 ) ) ;
#159 = EDGE_CURVE ( 'NONE', #23, #64, #48, .T. ) ;
#160 = DIRECTION ( 'NONE',  ( -0.000000000000000000, -0.000000000000000000, -1.000000000000000000 ) ) ;
#161 = ORIENTED_EDGE ( 'NONE', *, *, #116, .T. ) ;
#162 = PRODUCT_DEFINITION_FORMATION_WITH_SPECIFIED_SOURCE ( 'LIBOVOLNÝ', '', #167, .NOT_KNOWN. ) ;
#163 = PRESENTATION_STYLE_ASSIGNMENT (( #31 ) ) ;
#164 = PRESENTATION_LAYER_ASSIGNMENT (  '', '', ( #70 ) ) ;
#165 = CARTESIAN_POINT ( 'NONE',  ( 0.000000000000000000, 0.000000000000000000, 16.76000000000000156 ) ) ;
#166 = SURFACE_STYLE_FILL_AREA ( #86 ) ;
#167 = PRODUCT ( 'GS_16c76-100x80-VSG_ESG', 'GS_16c76-100x80-VSG_ESG', '', ( #57 ) ) ;
#168 = VECTOR ( 'NONE', #36, 1000.000000000000000 ) ;
#169 = APPLICATION_PROTOCOL_DEFINITION ( 'draft international standard', 'automotive_design', 1998, #108 ) ;
#170 = PRODUCT_DEFINITION_SHAPE ( 'NONE', 'NONE',  #59 ) ;
#171 =( NAMED_UNIT ( * ) SI_UNIT ( $, .STERADIAN. ) SOLID_ANGLE_UNIT ( ) );
#172 = UNCERTAINTY_MEASURE_WITH_UNIT (LENGTH_MEASURE( 1.000000000000000082E-05 ), #142, 'distance_accuracy_value', 'NONE');
#173 = EDGE_CURVE ( 'NONE', #23, #82, #84, .T. ) ;
#174 = EDGE_LOOP ( 'NONE', ( #152, #194, #151, #161 ) ) ;
#175 = AXIS2_PLACEMENT_3D ( 'NONE', #24, #71, #93 ) ;
#176 = CARTESIAN_POINT ( 'NONE',  ( 0.000000000000000000, 0.000000000000000000, 16.76000000000000156 ) ) ;
#177 = CARTESIAN_POINT ( 'NONE',  ( 0.000000000000000000, 1000.000000000000000, 0.000000000000000000 ) ) ;
#178 = LINE ( 'NONE', #3, #60 ) ;
#179 = DIRECTION ( 'NONE',  ( -1.000000000000000000, -0.000000000000000000, -0.000000000000000000 ) ) ;
#180 = VERTEX_POINT ( 'NONE', #111 ) ;
#181 = EDGE_LOOP ( 'NONE', ( #188, #135, #138, #109 ) ) ;
#182 = ORIENTED_EDGE ( 'NONE', *, *, #116, .F. ) ;
#183 = FACE_OUTER_BOUND ( 'NONE', #141, .T. ) ;
#184 =( LENGTH_UNIT ( ) NAMED_UNIT ( * ) SI_UNIT ( .MILLI., .METRE. ) );
#185 = SHAPE_DEFINITION_REPRESENTATION ( #170, #124 ) ;
#186 = PRESENTATION_STYLE_ASSIGNMENT (( #14 ) ) ;
#187 = UNCERTAINTY_MEASURE_WITH_UNIT (LENGTH_MEASURE( 1.000000000000000082E-05 ), #184, 'distance_accuracy_value', 'NONE');
#188 = ORIENTED_EDGE ( 'NONE', *, *, #6, .T. ) ;
#189 = CARTESIAN_POINT ( 'NONE',  ( 0.000000000000000000, 0.000000000000000000, 0.000000000000000000 ) ) ;
#190 = DIRECTION ( 'NONE',  ( 0.000000000000000000, -0.000000000000000000, -1.000000000000000000 ) ) ;
#191 = CARTESIAN_POINT ( 'NONE',  ( 800.0000000000000000, 0.000000000000000000, 16.76000000000000156 ) ) ;
#192 = CARTESIAN_POINT ( 'NONE',  ( 0.000000000000000000, 1000.000000000000000, 16.76000000000000156 ) ) ;
#193 = LINE ( 'NONE', #41, #200 ) ;
#194 = ORIENTED_EDGE ( 'NONE', *, *, #159, .T. ) ;
#195 = VECTOR ( 'NONE', #158, 1000.000000000000000 ) ;
#196 =( NAMED_UNIT ( * ) SI_UNIT ( $, .STERADIAN. ) SOLID_ANGLE_UNIT ( ) );
#197 = CARTESIAN_POINT ( 'NONE',  ( 0.000000000000000000, 0.000000000000000000, 16.76000000000000156 ) ) ;
#198 = PLANE ( 'NONE',  #121 ) ;
#199 = ADVANCED_FACE ( 'NONE', ( #7 ), #130, .F. ) ;
#200 = VECTOR ( 'NONE', #147, 1000.000000000000000 ) ;
#201 = SURFACE_SIDE_STYLE ('',( #33 ) ) ;
#202 = EDGE_CURVE ( 'NONE', #44, #23, #83, .T. ) ;
ENDSEC;
END-ISO-10303-21;
