ISO-10303-21;
HEADER;
FILE_DESCRIPTION (( 'STEP AP214' ),
    '1' );
FILE_NAME ('GS_16c76-100x90-VSG_ESG.STEP',
    '2021-04-16T14:17:26',
    ( '' ),
    ( '' ),
    'SwSTEP 2.0',
    'SolidWorks 2019',
    '' );
FILE_SCHEMA (( 'AUTOMOTIVE_DESIGN' ));
ENDSEC;

DATA;
#1 = APPLICATION_PROTOCOL_DEFINITION ( 'draft international standard', 'automotive_design', 1998, #46 ) ;
#2 = DIRECTION ( 'NONE',  ( 0.000000000000000000, -0.000000000000000000, -1.000000000000000000 ) ) ;
#3 = ORIENTED_EDGE ( 'NONE', *, *, #114, .T. ) ;
#4 = VERTEX_POINT ( 'NONE', #84 ) ;
#5 = PLANE ( 'NONE',  #54 ) ;
#6 = VERTEX_POINT ( 'NONE', #13 ) ;
#7 = AXIS2_PLACEMENT_3D ( 'NONE', #132, #25, #149 ) ;
#8 = EDGE_CURVE ( 'NONE', #48, #144, #42, .T. ) ;
#9 = FACE_OUTER_BOUND ( 'NONE', #192, .T. ) ;
#10 =( LENGTH_UNIT ( ) NAMED_UNIT ( * ) SI_UNIT ( .MILLI., .METRE. ) );
#11 = CARTESIAN_POINT ( 'NONE',  ( 0.000000000000000000, 0.000000000000000000, 16.76000000000000156 ) ) ;
#12 = CARTESIAN_POINT ( 'NONE',  ( 900.0000000000000000, 0.000000000000000000, 16.76000000000000156 ) ) ;
#13 = CARTESIAN_POINT ( 'NONE',  ( 900.0000000000000000, 0.000000000000000000, 16.76000000000000156 ) ) ;
#14 = EDGE_CURVE ( 'NONE', #49, #48, #153, .T. ) ;
#15 = VECTOR ( 'NONE', #36, 1000.000000000000000 ) ;
#16 = PRODUCT_RELATED_PRODUCT_CATEGORY ( 'part', '', ( #119 ) ) ;
#17 = CARTESIAN_POINT ( 'NONE',  ( 0.000000000000000000, 1000.000000000000000, 16.76000000000000156 ) ) ;
#18 = EDGE_LOOP ( 'NONE', ( #110, #186, #141, #182 ) ) ;
#19 = ORIENTED_EDGE ( 'NONE', *, *, #174, .F. ) ;
#20 = LINE ( 'NONE', #78, #143 ) ;
#21 = ADVANCED_FACE ( 'NONE', ( #172 ), #29, .F. ) ;
#22 = ORIENTED_EDGE ( 'NONE', *, *, #88, .T. ) ;
#23 =( NAMED_UNIT ( * ) PLANE_ANGLE_UNIT ( ) SI_UNIT ( $, .RADIAN. ) );
#24 = VECTOR ( 'NONE', #82, 1000.000000000000000 ) ;
#25 = DIRECTION ( 'NONE',  ( 0.000000000000000000, 0.000000000000000000, -1.000000000000000000 ) ) ;
#26 = LINE ( 'NONE', #98, #176 ) ;
#27 = DIRECTION ( 'NONE',  ( -1.000000000000000000, 0.000000000000000000, 0.000000000000000000 ) ) ;
#28 = DIRECTION ( 'NONE',  ( -0.000000000000000000, -0.000000000000000000, -1.000000000000000000 ) ) ;
#29 = PLANE ( 'NONE',  #31 ) ;
#30 = PRODUCT_DEFINITION_CONTEXT ( 'detailed design', #46, 'design' ) ;
#31 = AXIS2_PLACEMENT_3D ( 'NONE', #51, #37, #126 ) ;
#32 = SURFACE_STYLE_FILL_AREA ( #139 ) ;
#33 = ORIENTED_EDGE ( 'NONE', *, *, #45, .T. ) ;
#34 = COLOUR_RGB ( '',0.7529411764705882248, 0.7529411764705882248, 0.7529411764705882248 ) ;
#35 = ORIENTED_EDGE ( 'NONE', *, *, #85, .F. ) ;
#36 = DIRECTION ( 'NONE',  ( -0.000000000000000000, -0.000000000000000000, -1.000000000000000000 ) ) ;
#37 = DIRECTION ( 'NONE',  ( 1.000000000000000000, 0.000000000000000000, 0.000000000000000000 ) ) ;
#38 = EDGE_LOOP ( 'NONE', ( #164, #75, #129, #53 ) ) ;
#39 = PLANE ( 'NONE',  #7 ) ;
#40 =( NAMED_UNIT ( * ) SI_UNIT ( $, .STERADIAN. ) SOLID_ANGLE_UNIT ( ) );
#41 = CARTESIAN_POINT ( 'NONE',  ( 900.0000000000000000, 0.000000000000000000, 16.76000000000000156 ) ) ;
#42 = LINE ( 'NONE', #57, #175 ) ;
#43 = VECTOR ( 'NONE', #197, 1000.000000000000000 ) ;
#44 =( NAMED_UNIT ( * ) SI_UNIT ( $, .STERADIAN. ) SOLID_ANGLE_UNIT ( ) );
#45 = EDGE_CURVE ( 'NONE', #49, #77, #20, .T. ) ;
#46 = APPLICATION_CONTEXT ( 'automotive_design' ) ;
#47 = DIRECTION ( 'NONE',  ( 1.000000000000000000, 0.000000000000000000, 0.000000000000000000 ) ) ;
#48 = VERTEX_POINT ( 'NONE', #92 ) ;
#49 = VERTEX_POINT ( 'NONE', #162 ) ;
#50 =( GEOMETRIC_REPRESENTATION_CONTEXT ( 3 ) GLOBAL_UNCERTAINTY_ASSIGNED_CONTEXT ( ( #102 ) ) GLOBAL_UNIT_ASSIGNED_CONTEXT ( ( #201, #104, #44 ) ) REPRESENTATION_CONTEXT ( 'NONE', 'WORKASPACE' ) );
#51 = CARTESIAN_POINT ( 'NONE',  ( 0.000000000000000000, 0.000000000000000000, 16.76000000000000156 ) ) ;
#52 = PRODUCT_DEFINITION ( 'NEZNÁMÝ', '', #168, #30 ) ;
#53 = ORIENTED_EDGE ( 'NONE', *, *, #85, .T. ) ;
#54 = AXIS2_PLACEMENT_3D ( 'NONE', #112, #65, #181 ) ;
#55 = CARTESIAN_POINT ( 'NONE',  ( 0.000000000000000000, 0.000000000000000000, 0.000000000000000000 ) ) ;
#56 = CARTESIAN_POINT ( 'NONE',  ( 0.000000000000000000, 0.000000000000000000, 0.000000000000000000 ) ) ;
#57 = CARTESIAN_POINT ( 'NONE',  ( 0.000000000000000000, 1000.000000000000000, 0.000000000000000000 ) ) ;
#58 = SURFACE_SIDE_STYLE ('',( #99 ) ) ;
#59 = ADVANCED_FACE ( 'NONE', ( #146 ), #5, .T. ) ;
#60 =( GEOMETRIC_REPRESENTATION_CONTEXT ( 3 ) GLOBAL_UNCERTAINTY_ASSIGNED_CONTEXT ( ( #136 ) ) GLOBAL_UNIT_ASSIGNED_CONTEXT ( ( #148, #23, #131 ) ) REPRESENTATION_CONTEXT ( 'NONE', 'WORKASPACE' ) );
#61 = SHAPE_DEFINITION_REPRESENTATION ( #111, #193 ) ;
#62 = CARTESIAN_POINT ( 'NONE',  ( 0.000000000000000000, 1000.000000000000000, 16.76000000000000156 ) ) ;
#63 = EDGE_LOOP ( 'NONE', ( #22, #35, #19, #3 ) ) ;
#64 = ORIENTED_EDGE ( 'NONE', *, *, #189, .F. ) ;
#65 = DIRECTION ( 'NONE',  ( 0.000000000000000000, 0.000000000000000000, -1.000000000000000000 ) ) ;
#66 = EDGE_LOOP ( 'NONE', ( #124, #196, #64, #91 ) ) ;
#67 = AXIS2_PLACEMENT_3D ( 'NONE', #12, #27, #70 ) ;
#68 = LINE ( 'NONE', #116, #43 ) ;
#69 = LINE ( 'NONE', #56, #173 ) ;
#70 = DIRECTION ( 'NONE',  ( 0.000000000000000000, 0.000000000000000000, 1.000000000000000000 ) ) ;
#71 = PRESENTATION_STYLE_ASSIGNMENT (( #122 ) ) ;
#72 = MECHANICAL_DESIGN_GEOMETRIC_PRESENTATION_REPRESENTATION (  '', ( #150 ), #50 ) ;
#73 = VECTOR ( 'NONE', #183, 1000.000000000000000 ) ;
#74 = LINE ( 'NONE', #107, #15 ) ;
#75 = ORIENTED_EDGE ( 'NONE', *, *, #145, .F. ) ;
#76 = EDGE_CURVE ( 'NONE', #147, #6, #163, .T. ) ;
#77 = VERTEX_POINT ( 'NONE', #62 ) ;
#78 = CARTESIAN_POINT ( 'NONE',  ( 0.000000000000000000, 1000.000000000000000, 16.76000000000000156 ) ) ;
#79 = ORIENTED_EDGE ( 'NONE', *, *, #127, .F. ) ;
#80 = LINE ( 'NONE', #97, #87 ) ;
#81 = DIRECTION ( 'NONE',  ( 0.000000000000000000, 1.000000000000000000, 0.000000000000000000 ) ) ;
#82 = DIRECTION ( 'NONE',  ( -0.000000000000000000, -1.000000000000000000, -0.000000000000000000 ) ) ;
#83 = CARTESIAN_POINT ( 'NONE',  ( 0.000000000000000000, 0.000000000000000000, 16.76000000000000156 ) ) ;
#84 = CARTESIAN_POINT ( 'NONE',  ( 900.0000000000000000, 0.000000000000000000, 0.000000000000000000 ) ) ;
#85 = EDGE_CURVE ( 'NONE', #147, #180, #74, .T. ) ;
#86 = ADVANCED_FACE ( 'NONE', ( #191 ), #93, .F. ) ;
#87 = VECTOR ( 'NONE', #166, 1000.000000000000000 ) ;
#88 = EDGE_CURVE ( 'NONE', #144, #180, #123, .T. ) ;
#89 = ORIENTED_EDGE ( 'NONE', *, *, #88, .F. ) ;
#90 = DIRECTION ( 'NONE',  ( 1.000000000000000000, 0.000000000000000000, 0.000000000000000000 ) ) ;
#91 = ORIENTED_EDGE ( 'NONE', *, *, #145, .T. ) ;
#92 = CARTESIAN_POINT ( 'NONE',  ( 900.0000000000000000, 1000.000000000000000, 0.000000000000000000 ) ) ;
#93 = PLANE ( 'NONE',  #188 ) ;
#94 = ORIENTED_EDGE ( 'NONE', *, *, #174, .T. ) ;
#95 = LINE ( 'NONE', #165, #24 ) ;
#96 = MECHANICAL_DESIGN_GEOMETRIC_PRESENTATION_REPRESENTATION (  '', ( #108 ), #60 ) ;
#97 = CARTESIAN_POINT ( 'NONE',  ( 0.000000000000000000, 1000.000000000000000, 16.76000000000000156 ) ) ;
#98 = CARTESIAN_POINT ( 'NONE',  ( 900.0000000000000000, 0.000000000000000000, 16.76000000000000156 ) ) ;
#99 = SURFACE_STYLE_FILL_AREA ( #200 ) ;
#100 = FACE_OUTER_BOUND ( 'NONE', #38, .T. ) ;
#101 = DIRECTION ( 'NONE',  ( -1.000000000000000000, -0.000000000000000000, -0.000000000000000000 ) ) ;
#102 = UNCERTAINTY_MEASURE_WITH_UNIT (LENGTH_MEASURE( 1.000000000000000082E-05 ), #201, 'distance_accuracy_value', 'NONE');
#103 = VECTOR ( 'NONE', #28, 1000.000000000000000 ) ;
#104 =( NAMED_UNIT ( * ) PLANE_ANGLE_UNIT ( ) SI_UNIT ( $, .RADIAN. ) );
#105 = FILL_AREA_STYLE_COLOUR ( '', #34 ) ;
#106 = PRODUCT_CONTEXT ( 'NONE', #178, 'mechanical' ) ;
#107 = CARTESIAN_POINT ( 'NONE',  ( 0.000000000000000000, 0.000000000000000000, 16.76000000000000156 ) ) ;
#108 = STYLED_ITEM ( 'NONE', ( #184 ), #160 ) ;
#109 =( GEOMETRIC_REPRESENTATION_CONTEXT ( 3 ) GLOBAL_UNCERTAINTY_ASSIGNED_CONTEXT ( ( #187 ) ) GLOBAL_UNIT_ASSIGNED_CONTEXT ( ( #10, #133, #40 ) ) REPRESENTATION_CONTEXT ( 'NONE', 'WORKASPACE' ) );
#110 = ORIENTED_EDGE ( 'NONE', *, *, #8, .T. ) ;
#111 = PRODUCT_DEFINITION_SHAPE ( 'NONE', 'NONE',  #52 ) ;
#112 = CARTESIAN_POINT ( 'NONE',  ( 0.000000000000000000, 0.000000000000000000, 0.000000000000000000 ) ) ;
#113 = EDGE_LOOP ( 'NONE', ( #89, #135, #79, #161 ) ) ;
#114 = EDGE_CURVE ( 'NONE', #77, #144, #80, .T. ) ;
#115 = CLOSED_SHELL ( 'NONE', ( #21, #130, #154, #86, #121, #59 ) ) ;
#116 = CARTESIAN_POINT ( 'NONE',  ( 900.0000000000000000, 0.000000000000000000, 0.000000000000000000 ) ) ;
#117 = DIRECTION ( 'NONE',  ( 0.000000000000000000, -0.000000000000000000, 1.000000000000000000 ) ) ;
#118 = DIRECTION ( 'NONE',  ( -0.000000000000000000, -0.000000000000000000, -1.000000000000000000 ) ) ;
#119 = PRODUCT ( 'GS_16c76-100x90-VSG_ESG', 'GS_16c76-100x90-VSG_ESG', '', ( #106 ) ) ;
#120 = SURFACE_STYLE_USAGE ( .BOTH. , #58 ) ;
#121 = ADVANCED_FACE ( 'NONE', ( #9 ), #39, .F. ) ;
#122 = SURFACE_STYLE_USAGE ( .BOTH. , #156 ) ;
#123 = LINE ( 'NONE', #55, #73 ) ;
#124 = ORIENTED_EDGE ( 'NONE', *, *, #127, .T. ) ;
#125 = ORIENTED_EDGE ( 'NONE', *, *, #76, .T. ) ;
#126 = DIRECTION ( 'NONE',  ( 0.000000000000000000, 0.000000000000000000, -1.000000000000000000 ) ) ;
#127 = EDGE_CURVE ( 'NONE', #4, #48, #68, .T. ) ;
#128 = COLOUR_RGB ( '',0.7529411764705882248, 0.7529411764705882248, 0.7529411764705882248 ) ;
#129 = ORIENTED_EDGE ( 'NONE', *, *, #76, .F. ) ;
#130 = ADVANCED_FACE ( 'NONE', ( #100 ), #171, .F. ) ;
#131 =( NAMED_UNIT ( * ) SI_UNIT ( $, .STERADIAN. ) SOLID_ANGLE_UNIT ( ) );
#132 = CARTESIAN_POINT ( 'NONE',  ( 0.000000000000000000, 0.000000000000000000, 16.76000000000000156 ) ) ;
#133 =( NAMED_UNIT ( * ) PLANE_ANGLE_UNIT ( ) SI_UNIT ( $, .RADIAN. ) );
#134 = CARTESIAN_POINT ( 'NONE',  ( 0.000000000000000000, 1000.000000000000000, 0.000000000000000000 ) ) ;
#135 = ORIENTED_EDGE ( 'NONE', *, *, #8, .F. ) ;
#136 = UNCERTAINTY_MEASURE_WITH_UNIT (LENGTH_MEASURE( 1.000000000000000082E-05 ), #148, 'distance_accuracy_value', 'NONE');
#137 = FACE_OUTER_BOUND ( 'NONE', #66, .T. ) ;
#138 = EDGE_CURVE ( 'NONE', #180, #4, #69, .T. ) ;
#139 = FILL_AREA_STYLE ('',( #105 ) ) ;
#140 = DIRECTION ( 'NONE',  ( 0.000000000000000000, -1.000000000000000000, 0.000000000000000000 ) ) ;
#141 = ORIENTED_EDGE ( 'NONE', *, *, #45, .F. ) ;
#142 = APPLICATION_PROTOCOL_DEFINITION ( 'draft international standard', 'automotive_design', 1998, #178 ) ;
#143 = VECTOR ( 'NONE', #194, 1000.000000000000000 ) ;
#144 = VERTEX_POINT ( 'NONE', #134 ) ;
#145 = EDGE_CURVE ( 'NONE', #6, #4, #185, .T. ) ;
#146 = FACE_OUTER_BOUND ( 'NONE', #113, .T. ) ;
#147 = VERTEX_POINT ( 'NONE', #83 ) ;
#148 =( LENGTH_UNIT ( ) NAMED_UNIT ( * ) SI_UNIT ( .MILLI., .METRE. ) );
#149 = DIRECTION ( 'NONE',  ( -1.000000000000000000, 0.000000000000000000, -0.000000000000000000 ) ) ;
#150 = STYLED_ITEM ( 'NONE', ( #71 ), #193 ) ;
#151 = DIRECTION ( 'NONE',  ( 1.000000000000000000, 0.000000000000000000, 0.000000000000000000 ) ) ;
#152 = FILL_AREA_STYLE_COLOUR ( '', #128 ) ;
#153 = LINE ( 'NONE', #199, #155 ) ;
#154 = ADVANCED_FACE ( 'NONE', ( #137 ), #170, .F. ) ;
#155 = VECTOR ( 'NONE', #118, 1000.000000000000000 ) ;
#156 = SURFACE_SIDE_STYLE ('',( #32 ) ) ;
#157 = AXIS2_PLACEMENT_3D ( 'NONE', #11, #198, #117 ) ;
#158 = ORIENTED_EDGE ( 'NONE', *, *, #189, .T. ) ;
#159 = CARTESIAN_POINT ( 'NONE',  ( 0.000000000000000000, 0.000000000000000000, 0.000000000000000000 ) ) ;
#160 = MANIFOLD_SOLID_BREP ( 'Pøidat vysunutím1', #115 ) ;
#161 = ORIENTED_EDGE ( 'NONE', *, *, #138, .F. ) ;
#162 = CARTESIAN_POINT ( 'NONE',  ( 900.0000000000000000, 1000.000000000000000, 16.76000000000000156 ) ) ;
#163 = LINE ( 'NONE', #177, #195 ) ;
#164 = ORIENTED_EDGE ( 'NONE', *, *, #138, .T. ) ;
#165 = CARTESIAN_POINT ( 'NONE',  ( 0.000000000000000000, 0.000000000000000000, 16.76000000000000156 ) ) ;
#166 = DIRECTION ( 'NONE',  ( -0.000000000000000000, -0.000000000000000000, -1.000000000000000000 ) ) ;
#167 = PRESENTATION_LAYER_ASSIGNMENT (  '', '', ( #108 ) ) ;
#168 = PRODUCT_DEFINITION_FORMATION_WITH_SPECIFIED_SOURCE ( 'LIBOVOLNÝ', '', #119, .NOT_KNOWN. ) ;
#169 = CARTESIAN_POINT ( 'NONE',  ( 0.000000000000000000, 0.000000000000000000, 0.000000000000000000 ) ) ;
#170 = PLANE ( 'NONE',  #67 ) ;
#171 = PLANE ( 'NONE',  #157 ) ;
#172 = FACE_OUTER_BOUND ( 'NONE', #63, .T. ) ;
#173 = VECTOR ( 'NONE', #151, 1000.000000000000000 ) ;
#174 = EDGE_CURVE ( 'NONE', #77, #147, #95, .T. ) ;
#175 = VECTOR ( 'NONE', #101, 1000.000000000000000 ) ;
#176 = VECTOR ( 'NONE', #81, 1000.000000000000000 ) ;
#177 = CARTESIAN_POINT ( 'NONE',  ( 0.000000000000000000, 0.000000000000000000, 16.76000000000000156 ) ) ;
#178 = APPLICATION_CONTEXT ( 'automotive_design' ) ;
#179 = PRESENTATION_LAYER_ASSIGNMENT (  '', '', ( #150 ) ) ;
#180 = VERTEX_POINT ( 'NONE', #169 ) ;
#181 = DIRECTION ( 'NONE',  ( -1.000000000000000000, 0.000000000000000000, -0.000000000000000000 ) ) ;
#182 = ORIENTED_EDGE ( 'NONE', *, *, #14, .T. ) ;
#183 = DIRECTION ( 'NONE',  ( -0.000000000000000000, -1.000000000000000000, -0.000000000000000000 ) ) ;
#184 = PRESENTATION_STYLE_ASSIGNMENT (( #120 ) ) ;
#185 = LINE ( 'NONE', #41, #103 ) ;
#186 = ORIENTED_EDGE ( 'NONE', *, *, #114, .F. ) ;
#187 = UNCERTAINTY_MEASURE_WITH_UNIT (LENGTH_MEASURE( 1.000000000000000082E-05 ), #10, 'distance_accuracy_value', 'NONE');
#188 = AXIS2_PLACEMENT_3D ( 'NONE', #17, #140, #2 ) ;
#189 = EDGE_CURVE ( 'NONE', #6, #49, #26, .T. ) ;
#190 = DIRECTION ( 'NONE',  ( 0.000000000000000000, 0.000000000000000000, 1.000000000000000000 ) ) ;
#191 = FACE_OUTER_BOUND ( 'NONE', #18, .T. ) ;
#192 = EDGE_LOOP ( 'NONE', ( #94, #125, #158, #33 ) ) ;
#193 = ADVANCED_BREP_SHAPE_REPRESENTATION ( 'GS_16c76-100x90-VSG_ESG', ( #160, #202 ), #109 ) ;
#194 = DIRECTION ( 'NONE',  ( -1.000000000000000000, -0.000000000000000000, -0.000000000000000000 ) ) ;
#195 = VECTOR ( 'NONE', #47, 1000.000000000000000 ) ;
#196 = ORIENTED_EDGE ( 'NONE', *, *, #14, .F. ) ;
#197 = DIRECTION ( 'NONE',  ( 0.000000000000000000, 1.000000000000000000, 0.000000000000000000 ) ) ;
#198 = DIRECTION ( 'NONE',  ( 0.000000000000000000, 1.000000000000000000, 0.000000000000000000 ) ) ;
#199 = CARTESIAN_POINT ( 'NONE',  ( 900.0000000000000000, 1000.000000000000000, 16.76000000000000156 ) ) ;
#200 = FILL_AREA_STYLE ('',( #152 ) ) ;
#201 =( LENGTH_UNIT ( ) NAMED_UNIT ( * ) SI_UNIT ( .MILLI., .METRE. ) );
#202 = AXIS2_PLACEMENT_3D ( 'NONE', #159, #190, #90 ) ;
ENDSEC;
END-ISO-10303-21;
