ISO-10303-21;
HEADER;
FILE_DESCRIPTION (( 'STEP AP214' ),
    '1' );
FILE_NAME ('GS_16c76-100x95-VSG_ESG.STEP',
    '2021-08-16T07:34:16',
    ( '' ),
    ( '' ),
    'SwSTEP 2.0',
    'SolidWorks 2019',
    '' );
FILE_SCHEMA (( 'AUTOMOTIVE_DESIGN' ));
ENDSEC;

DATA;
#1 = CARTESIAN_POINT ( 'NONE',  ( 0.000000000000000000, 0.000000000000000000, 16.76000000000000156 ) ) ;
#2 = CARTESIAN_POINT ( 'NONE',  ( 0.000000000000000000, 0.000000000000000000, 16.76000000000000156 ) ) ;
#3 = FILL_AREA_STYLE ('',( #128 ) ) ;
#4 = VECTOR ( 'NONE', #157, 1000.000000000000000 ) ;
#5 = SURFACE_STYLE_FILL_AREA ( #3 ) ;
#6 =( LENGTH_UNIT ( ) NAMED_UNIT ( * ) SI_UNIT ( .MILLI., .METRE. ) );
#7 = ADVANCED_FACE ( 'NONE', ( #102 ), #165, .F. ) ;
#8 =( GEOMETRIC_REPRESENTATION_CONTEXT ( 3 ) GLOBAL_UNCERTAINTY_ASSIGNED_CONTEXT ( ( #186 ) ) GLOBAL_UNIT_ASSIGNED_CONTEXT ( ( #39, #57, #177 ) ) REPRESENTATION_CONTEXT ( 'NONE', 'WORKASPACE' ) );
#9 = CARTESIAN_POINT ( 'NONE',  ( 1000.000000000000000, 0.000000000000000000, 16.76000000000000156 ) ) ;
#10 = APPLICATION_CONTEXT ( 'automotive_design' ) ;
#11 = ADVANCED_FACE ( 'NONE', ( #14 ), #28, .F. ) ;
#12 = MECHANICAL_DESIGN_GEOMETRIC_PRESENTATION_REPRESENTATION (  '', ( #145 ), #8 ) ;
#13 = VERTEX_POINT ( 'NONE', #63 ) ;
#14 = FACE_OUTER_BOUND ( 'NONE', #156, .T. ) ;
#15 = CARTESIAN_POINT ( 'NONE',  ( 0.000000000000000000, 0.000000000000000000, 0.000000000000000000 ) ) ;
#16 = DIRECTION ( 'NONE',  ( -0.000000000000000000, -1.000000000000000000, -0.000000000000000000 ) ) ;
#17 = LINE ( 'NONE', #70, #131 ) ;
#18 = EDGE_CURVE ( 'NONE', #47, #25, #122, .T. ) ;
#19 = ORIENTED_EDGE ( 'NONE', *, *, #18, .F. ) ;
#20 = FACE_OUTER_BOUND ( 'NONE', #184, .T. ) ;
#21 = CARTESIAN_POINT ( 'NONE',  ( 0.000000000000000000, 0.000000000000000000, 16.76000000000000156 ) ) ;
#22 = VECTOR ( 'NONE', #95, 1000.000000000000000 ) ;
#23 = CARTESIAN_POINT ( 'NONE',  ( 1000.000000000000000, 950.0000000000000000, 0.000000000000000000 ) ) ;
#24 = EDGE_CURVE ( 'NONE', #13, #179, #188, .T. ) ;
#25 = VERTEX_POINT ( 'NONE', #21 ) ;
#26 = ORIENTED_EDGE ( 'NONE', *, *, #138, .F. ) ;
#27 = ORIENTED_EDGE ( 'NONE', *, *, #32, .T. ) ;
#28 = PLANE ( 'NONE',  #149 ) ;
#29 = ORIENTED_EDGE ( 'NONE', *, *, #152, .T. ) ;
#30 = PLANE ( 'NONE',  #45 ) ;
#31 = COLOUR_RGB ( '',0.7529411764705882248, 0.7529411764705882248, 0.7529411764705882248 ) ;
#32 = EDGE_CURVE ( 'NONE', #148, #179, #126, .T. ) ;
#33 = EDGE_LOOP ( 'NONE', ( #104, #151, #44, #134 ) ) ;
#34 = DIRECTION ( 'NONE',  ( -1.000000000000000000, -0.000000000000000000, -0.000000000000000000 ) ) ;
#35 = CARTESIAN_POINT ( 'NONE',  ( 0.000000000000000000, 0.000000000000000000, 0.000000000000000000 ) ) ;
#36 = LINE ( 'NONE', #48, #4 ) ;
#37 = CARTESIAN_POINT ( 'NONE',  ( 0.000000000000000000, 0.000000000000000000, 0.000000000000000000 ) ) ;
#38 = FACE_OUTER_BOUND ( 'NONE', #89, .T. ) ;
#39 =( LENGTH_UNIT ( ) NAMED_UNIT ( * ) SI_UNIT ( .MILLI., .METRE. ) );
#40 = ADVANCED_FACE ( 'NONE', ( #38 ), #141, .F. ) ;
#41 = SURFACE_STYLE_USAGE ( .BOTH. , #146 ) ;
#42 = APPLICATION_PROTOCOL_DEFINITION ( 'draft international standard', 'automotive_design', 1998, #171 ) ;
#43 = EDGE_CURVE ( 'NONE', #133, #164, #51, .T. ) ;
#44 = ORIENTED_EDGE ( 'NONE', *, *, #84, .F. ) ;
#45 = AXIS2_PLACEMENT_3D ( 'NONE', #15, #96, #159 ) ;
#46 = ORIENTED_EDGE ( 'NONE', *, *, #81, .T. ) ;
#47 = VERTEX_POINT ( 'NONE', #201 ) ;
#48 = CARTESIAN_POINT ( 'NONE',  ( 0.000000000000000000, 0.000000000000000000, 16.76000000000000156 ) ) ;
#49 = EDGE_CURVE ( 'NONE', #164, #148, #111, .T. ) ;
#50 = DIRECTION ( 'NONE',  ( 0.000000000000000000, -1.000000000000000000, 0.000000000000000000 ) ) ;
#51 = LINE ( 'NONE', #127, #202 ) ;
#52 = DIRECTION ( 'NONE',  ( 0.000000000000000000, 1.000000000000000000, 0.000000000000000000 ) ) ;
#53 = DIRECTION ( 'NONE',  ( -0.000000000000000000, -0.000000000000000000, -1.000000000000000000 ) ) ;
#54 = DIRECTION ( 'NONE',  ( 0.000000000000000000, 0.000000000000000000, -1.000000000000000000 ) ) ;
#55 = PRESENTATION_STYLE_ASSIGNMENT (( #41 ) ) ;
#56 = VECTOR ( 'NONE', #174, 1000.000000000000000 ) ;
#57 =( NAMED_UNIT ( * ) PLANE_ANGLE_UNIT ( ) SI_UNIT ( $, .RADIAN. ) );
#58 = ADVANCED_BREP_SHAPE_REPRESENTATION ( 'GS_16c76-100x95-VSG_ESG', ( #194, #132 ), #59 ) ;
#59 =( GEOMETRIC_REPRESENTATION_CONTEXT ( 3 ) GLOBAL_UNCERTAINTY_ASSIGNED_CONTEXT ( ( #75 ) ) GLOBAL_UNIT_ASSIGNED_CONTEXT ( ( #6, #130, #160 ) ) REPRESENTATION_CONTEXT ( 'NONE', 'WORKASPACE' ) );
#60 = ORIENTED_EDGE ( 'NONE', *, *, #84, .T. ) ;
#61 = ORIENTED_EDGE ( 'NONE', *, *, #32, .F. ) ;
#62 = STYLED_ITEM ( 'NONE', ( #55 ), #58 ) ;
#63 = CARTESIAN_POINT ( 'NONE',  ( 1000.000000000000000, 950.0000000000000000, 16.76000000000000156 ) ) ;
#64 = CARTESIAN_POINT ( 'NONE',  ( 1000.000000000000000, 0.000000000000000000, 0.000000000000000000 ) ) ;
#65 = EDGE_LOOP ( 'NONE', ( #99, #166, #19, #88 ) ) ;
#66 = SURFACE_STYLE_USAGE ( .BOTH. , #155 ) ;
#67 = DIRECTION ( 'NONE',  ( -0.000000000000000000, -0.000000000000000000, -1.000000000000000000 ) ) ;
#68 = PRODUCT_DEFINITION_SHAPE ( 'NONE', 'NONE',  #100 ) ;
#69 = PRESENTATION_LAYER_ASSIGNMENT (  '', '', ( #62 ) ) ;
#70 = CARTESIAN_POINT ( 'NONE',  ( 0.000000000000000000, 0.000000000000000000, 16.76000000000000156 ) ) ;
#71 = DIRECTION ( 'NONE',  ( 1.000000000000000000, 0.000000000000000000, 0.000000000000000000 ) ) ;
#72 = AXIS2_PLACEMENT_3D ( 'NONE', #168, #50, #78 ) ;
#73 = ORIENTED_EDGE ( 'NONE', *, *, #18, .T. ) ;
#74 = DIRECTION ( 'NONE',  ( -0.000000000000000000, -1.000000000000000000, -0.000000000000000000 ) ) ;
#75 = UNCERTAINTY_MEASURE_WITH_UNIT (LENGTH_MEASURE( 1.000000000000000082E-05 ), #6, 'distance_accuracy_value', 'NONE');
#76 = ORIENTED_EDGE ( 'NONE', *, *, #150, .F. ) ;
#77 = SURFACE_STYLE_FILL_AREA ( #91 ) ;
#78 = DIRECTION ( 'NONE',  ( 0.000000000000000000, -0.000000000000000000, -1.000000000000000000 ) ) ;
#79 = FACE_OUTER_BOUND ( 'NONE', #117, .T. ) ;
#80 = CARTESIAN_POINT ( 'NONE',  ( 1000.000000000000000, 0.000000000000000000, 16.76000000000000156 ) ) ;
#81 = EDGE_CURVE ( 'NONE', #199, #148, #170, .T. ) ;
#82 = VECTOR ( 'NONE', #137, 1000.000000000000000 ) ;
#83 = LINE ( 'NONE', #191, #90 ) ;
#84 = EDGE_CURVE ( 'NONE', #13, #47, #167, .T. ) ;
#85 = APPLICATION_PROTOCOL_DEFINITION ( 'draft international standard', 'automotive_design', 1998, #10 ) ;
#86 = PRESENTATION_LAYER_ASSIGNMENT (  '', '', ( #145 ) ) ;
#87 = ORIENTED_EDGE ( 'NONE', *, *, #49, .T. ) ;
#88 = ORIENTED_EDGE ( 'NONE', *, *, #110, .T. ) ;
#89 = EDGE_LOOP ( 'NONE', ( #87, #119, #26, #29 ) ) ;
#90 = VECTOR ( 'NONE', #67, 1000.000000000000000 ) ;
#91 = FILL_AREA_STYLE ('',( #105 ) ) ;
#92 = CARTESIAN_POINT ( 'NONE',  ( 1000.000000000000000, 0.000000000000000000, 16.76000000000000156 ) ) ;
#93 = LINE ( 'NONE', #193, #82 ) ;
#94 = DIRECTION ( 'NONE',  ( 0.000000000000000000, 0.000000000000000000, 1.000000000000000000 ) ) ;
#95 = DIRECTION ( 'NONE',  ( 0.000000000000000000, 1.000000000000000000, 0.000000000000000000 ) ) ;
#96 = DIRECTION ( 'NONE',  ( 0.000000000000000000, 0.000000000000000000, -1.000000000000000000 ) ) ;
#97 = DIRECTION ( 'NONE',  ( 0.000000000000000000, -0.000000000000000000, 1.000000000000000000 ) ) ;
#98 = VECTOR ( 'NONE', #16, 1000.000000000000000 ) ;
#99 = ORIENTED_EDGE ( 'NONE', *, *, #43, .T. ) ;
#100 = PRODUCT_DEFINITION ( 'NEZNÁMÝ', '', #190, #103 ) ;
#101 = AXIS2_PLACEMENT_3D ( 'NONE', #189, #52, #97 ) ;
#102 = FACE_OUTER_BOUND ( 'NONE', #33, .T. ) ;
#103 = PRODUCT_DEFINITION_CONTEXT ( 'detailed design', #171, 'design' ) ;
#104 = ORIENTED_EDGE ( 'NONE', *, *, #115, .T. ) ;
#105 = FILL_AREA_STYLE_COLOUR ( '', #31 ) ;
#106 = CARTESIAN_POINT ( 'NONE',  ( 1000.000000000000000, 950.0000000000000000, 16.76000000000000156 ) ) ;
#107 = VECTOR ( 'NONE', #34, 1000.000000000000000 ) ;
#108 = DIRECTION ( 'NONE',  ( 1.000000000000000000, 0.000000000000000000, 0.000000000000000000 ) ) ;
#109 = DIRECTION ( 'NONE',  ( 1.000000000000000000, 0.000000000000000000, 0.000000000000000000 ) ) ;
#110 = EDGE_CURVE ( 'NONE', #47, #133, #83, .T. ) ;
#111 = LINE ( 'NONE', #187, #153 ) ;
#112 = DIRECTION ( 'NONE',  ( 0.000000000000000000, 0.000000000000000000, -1.000000000000000000 ) ) ;
#113 = CARTESIAN_POINT ( 'NONE',  ( 1000.000000000000000, 0.000000000000000000, 16.76000000000000156 ) ) ;
#114 =( LENGTH_UNIT ( ) NAMED_UNIT ( * ) SI_UNIT ( .MILLI., .METRE. ) );
#115 = EDGE_CURVE ( 'NONE', #179, #133, #93, .T. ) ;
#116 = AXIS2_PLACEMENT_3D ( 'NONE', #1, #112, #172 ) ;
#117 = EDGE_LOOP ( 'NONE', ( #118, #120, #61, #196 ) ) ;
#118 = ORIENTED_EDGE ( 'NONE', *, *, #43, .F. ) ;
#119 = ORIENTED_EDGE ( 'NONE', *, *, #81, .F. ) ;
#120 = ORIENTED_EDGE ( 'NONE', *, *, #115, .F. ) ;
#121 = PLANE ( 'NONE',  #185 ) ;
#122 = LINE ( 'NONE', #154, #98 ) ;
#123 = PRESENTATION_STYLE_ASSIGNMENT (( #66 ) ) ;
#124 = PRODUCT_RELATED_PRODUCT_CATEGORY ( 'part', '', ( #176 ) ) ;
#125 = CARTESIAN_POINT ( 'NONE',  ( 0.000000000000000000, 950.0000000000000000, 0.000000000000000000 ) ) ;
#126 = LINE ( 'NONE', #64, #56 ) ;
#127 = CARTESIAN_POINT ( 'NONE',  ( 0.000000000000000000, 0.000000000000000000, 0.000000000000000000 ) ) ;
#128 = FILL_AREA_STYLE_COLOUR ( '', #147 ) ;
#129 =( NAMED_UNIT ( * ) SI_UNIT ( $, .STERADIAN. ) SOLID_ANGLE_UNIT ( ) );
#130 =( NAMED_UNIT ( * ) PLANE_ANGLE_UNIT ( ) SI_UNIT ( $, .RADIAN. ) );
#131 = VECTOR ( 'NONE', #158, 1000.000000000000000 ) ;
#132 = AXIS2_PLACEMENT_3D ( 'NONE', #35, #94, #109 ) ;
#133 = VERTEX_POINT ( 'NONE', #125 ) ;
#134 = ORIENTED_EDGE ( 'NONE', *, *, #24, .T. ) ;
#135 = SHAPE_DEFINITION_REPRESENTATION ( #68, #58 ) ;
#136 = DIRECTION ( 'NONE',  ( -1.000000000000000000, 0.000000000000000000, 0.000000000000000000 ) ) ;
#137 = DIRECTION ( 'NONE',  ( -1.000000000000000000, -0.000000000000000000, -0.000000000000000000 ) ) ;
#138 = EDGE_CURVE ( 'NONE', #25, #199, #36, .T. ) ;
#139 = ORIENTED_EDGE ( 'NONE', *, *, #138, .T. ) ;
#140 = LINE ( 'NONE', #113, #22 ) ;
#141 = PLANE ( 'NONE',  #101 ) ;
#142 = CLOSED_SHELL ( 'NONE', ( #183, #40, #11, #7, #161, #175 ) ) ;
#143 = PLANE ( 'NONE',  #116 ) ;
#144 = FACE_OUTER_BOUND ( 'NONE', #65, .T. ) ;
#145 = STYLED_ITEM ( 'NONE', ( #123 ), #194 ) ;
#146 = SURFACE_SIDE_STYLE ('',( #5 ) ) ;
#147 = COLOUR_RGB ( '',0.7529411764705882248, 0.7529411764705882248, 0.7529411764705882248 ) ;
#148 = VERTEX_POINT ( 'NONE', #200 ) ;
#149 = AXIS2_PLACEMENT_3D ( 'NONE', #92, #136, #197 ) ;
#150 = EDGE_CURVE ( 'NONE', #199, #13, #140, .T. ) ;
#151 = ORIENTED_EDGE ( 'NONE', *, *, #110, .F. ) ;
#152 = EDGE_CURVE ( 'NONE', #25, #164, #17, .T. ) ;
#153 = VECTOR ( 'NONE', #108, 1000.000000000000000 ) ;
#154 = CARTESIAN_POINT ( 'NONE',  ( 0.000000000000000000, 0.000000000000000000, 16.76000000000000156 ) ) ;
#155 = SURFACE_SIDE_STYLE ('',( #77 ) ) ;
#156 = EDGE_LOOP ( 'NONE', ( #27, #163, #76, #46 ) ) ;
#157 = DIRECTION ( 'NONE',  ( 1.000000000000000000, 0.000000000000000000, 0.000000000000000000 ) ) ;
#158 = DIRECTION ( 'NONE',  ( -0.000000000000000000, -0.000000000000000000, -1.000000000000000000 ) ) ;
#159 = DIRECTION ( 'NONE',  ( -1.000000000000000000, 0.000000000000000000, -0.000000000000000000 ) ) ;
#160 =( NAMED_UNIT ( * ) SI_UNIT ( $, .STERADIAN. ) SOLID_ANGLE_UNIT ( ) );
#161 = ADVANCED_FACE ( 'NONE', ( #20 ), #143, .F. ) ;
#162 = MECHANICAL_DESIGN_GEOMETRIC_PRESENTATION_REPRESENTATION (  '', ( #62 ), #195 ) ;
#163 = ORIENTED_EDGE ( 'NONE', *, *, #24, .F. ) ;
#164 = VERTEX_POINT ( 'NONE', #37 ) ;
#165 = PLANE ( 'NONE',  #72 ) ;
#166 = ORIENTED_EDGE ( 'NONE', *, *, #152, .F. ) ;
#167 = LINE ( 'NONE', #192, #107 ) ;
#168 = CARTESIAN_POINT ( 'NONE',  ( 0.000000000000000000, 950.0000000000000000, 16.76000000000000156 ) ) ;
#169 = DIRECTION ( 'NONE',  ( -0.000000000000000000, -0.000000000000000000, -1.000000000000000000 ) ) ;
#170 = LINE ( 'NONE', #80, #173 ) ;
#171 = APPLICATION_CONTEXT ( 'automotive_design' ) ;
#172 = DIRECTION ( 'NONE',  ( -1.000000000000000000, 0.000000000000000000, -0.000000000000000000 ) ) ;
#173 = VECTOR ( 'NONE', #169, 1000.000000000000000 ) ;
#174 = DIRECTION ( 'NONE',  ( 0.000000000000000000, 1.000000000000000000, 0.000000000000000000 ) ) ;
#175 = ADVANCED_FACE ( 'NONE', ( #79 ), #30, .T. ) ;
#176 = PRODUCT ( 'GS_16c76-100x95-VSG_ESG', 'GS_16c76-100x95-VSG_ESG', '', ( #180 ) ) ;
#177 =( NAMED_UNIT ( * ) SI_UNIT ( $, .STERADIAN. ) SOLID_ANGLE_UNIT ( ) );
#178 =( NAMED_UNIT ( * ) PLANE_ANGLE_UNIT ( ) SI_UNIT ( $, .RADIAN. ) );
#179 = VERTEX_POINT ( 'NONE', #23 ) ;
#180 = PRODUCT_CONTEXT ( 'NONE', #10, 'mechanical' ) ;
#181 = VECTOR ( 'NONE', #53, 1000.000000000000000 ) ;
#182 = ORIENTED_EDGE ( 'NONE', *, *, #150, .T. ) ;
#183 = ADVANCED_FACE ( 'NONE', ( #144 ), #121, .F. ) ;
#184 = EDGE_LOOP ( 'NONE', ( #73, #139, #182, #60 ) ) ;
#185 = AXIS2_PLACEMENT_3D ( 'NONE', #2, #71, #54 ) ;
#186 = UNCERTAINTY_MEASURE_WITH_UNIT (LENGTH_MEASURE( 1.000000000000000082E-05 ), #39, 'distance_accuracy_value', 'NONE');
#187 = CARTESIAN_POINT ( 'NONE',  ( 0.000000000000000000, 0.000000000000000000, 0.000000000000000000 ) ) ;
#188 = LINE ( 'NONE', #106, #181 ) ;
#189 = CARTESIAN_POINT ( 'NONE',  ( 0.000000000000000000, 0.000000000000000000, 16.76000000000000156 ) ) ;
#190 = PRODUCT_DEFINITION_FORMATION_WITH_SPECIFIED_SOURCE ( 'LIBOVOLNÝ', '', #176, .NOT_KNOWN. ) ;
#191 = CARTESIAN_POINT ( 'NONE',  ( 0.000000000000000000, 950.0000000000000000, 16.76000000000000156 ) ) ;
#192 = CARTESIAN_POINT ( 'NONE',  ( 0.000000000000000000, 950.0000000000000000, 16.76000000000000156 ) ) ;
#193 = CARTESIAN_POINT ( 'NONE',  ( 0.000000000000000000, 950.0000000000000000, 0.000000000000000000 ) ) ;
#194 = MANIFOLD_SOLID_BREP ( 'Pøidat vysunutím1', #142 ) ;
#195 =( GEOMETRIC_REPRESENTATION_CONTEXT ( 3 ) GLOBAL_UNCERTAINTY_ASSIGNED_CONTEXT ( ( #198 ) ) GLOBAL_UNIT_ASSIGNED_CONTEXT ( ( #114, #178, #129 ) ) REPRESENTATION_CONTEXT ( 'NONE', 'WORKASPACE' ) );
#196 = ORIENTED_EDGE ( 'NONE', *, *, #49, .F. ) ;
#197 = DIRECTION ( 'NONE',  ( 0.000000000000000000, 0.000000000000000000, 1.000000000000000000 ) ) ;
#198 = UNCERTAINTY_MEASURE_WITH_UNIT (LENGTH_MEASURE( 1.000000000000000082E-05 ), #114, 'distance_accuracy_value', 'NONE');
#199 = VERTEX_POINT ( 'NONE', #9 ) ;
#200 = CARTESIAN_POINT ( 'NONE',  ( 1000.000000000000000, 0.000000000000000000, 0.000000000000000000 ) ) ;
#201 = CARTESIAN_POINT ( 'NONE',  ( 0.000000000000000000, 950.0000000000000000, 16.76000000000000156 ) ) ;
#202 = VECTOR ( 'NONE', #74, 1000.000000000000000 ) ;
ENDSEC;
END-ISO-10303-21;
