ISO-10303-21;
HEADER;
FILE_DESCRIPTION (( 'STEP AP214' ),
    '1' );
FILE_NAME ('GS_16c76-120x70-VSG_ESG.STEP',
    '2021-08-16T07:36:23',
    ( '' ),
    ( '' ),
    'SwSTEP 2.0',
    'SolidWorks 2019',
    '' );
FILE_SCHEMA (( 'AUTOMOTIVE_DESIGN' ));
ENDSEC;

DATA;
#1 = AXIS2_PLACEMENT_3D ( 'NONE', #86, #14, #119 ) ;
#2 = CARTESIAN_POINT ( 'NONE',  ( 0.000000000000000000, 700.0000000000000000, 16.76000000000000156 ) ) ;
#3 = DIRECTION ( 'NONE',  ( 1.000000000000000000, 0.000000000000000000, 0.000000000000000000 ) ) ;
#4 = CARTESIAN_POINT ( 'NONE',  ( 0.000000000000000000, 0.000000000000000000, 16.76000000000000156 ) ) ;
#5 = LINE ( 'NONE', #33, #113 ) ;
#6 = ADVANCED_FACE ( 'NONE', ( #55 ), #62, .F. ) ;
#7 = DIRECTION ( 'NONE',  ( 0.000000000000000000, 1.000000000000000000, 0.000000000000000000 ) ) ;
#8 = FILL_AREA_STYLE_COLOUR ( '', #115 ) ;
#9 = FACE_OUTER_BOUND ( 'NONE', #170, .T. ) ;
#10 = ORIENTED_EDGE ( 'NONE', *, *, #140, .T. ) ;
#11 = LINE ( 'NONE', #151, #27 ) ;
#12 = ORIENTED_EDGE ( 'NONE', *, *, #70, .T. ) ;
#13 = CLOSED_SHELL ( 'NONE', ( #61, #16, #6, #101, #78, #190 ) ) ;
#14 = DIRECTION ( 'NONE',  ( 0.000000000000000000, 1.000000000000000000, 0.000000000000000000 ) ) ;
#15 = DIRECTION ( 'NONE',  ( 0.000000000000000000, 0.000000000000000000, 1.000000000000000000 ) ) ;
#16 = ADVANCED_FACE ( 'NONE', ( #25 ), #91, .F. ) ;
#17 = EDGE_CURVE ( 'NONE', #142, #107, #36, .T. ) ;
#18 = LINE ( 'NONE', #110, #108 ) ;
#19 = VECTOR ( 'NONE', #120, 1000.000000000000000 ) ;
#20 = CARTESIAN_POINT ( 'NONE',  ( 0.000000000000000000, 700.0000000000000000, 0.000000000000000000 ) ) ;
#21 = EDGE_CURVE ( 'NONE', #38, #72, #182, .T. ) ;
#22 = FACE_OUTER_BOUND ( 'NONE', #65, .T. ) ;
#23 = PRODUCT ( 'GS_16c76-120x70-VSG_ESG', 'GS_16c76-120x70-VSG_ESG', '', ( #121 ) ) ;
#24 = SURFACE_SIDE_STYLE ('',( #164 ) ) ;
#25 = FACE_OUTER_BOUND ( 'NONE', #183, .T. ) ;
#26 = ORIENTED_EDGE ( 'NONE', *, *, #85, .T. ) ;
#27 = VECTOR ( 'NONE', #180, 1000.000000000000000 ) ;
#28 = LINE ( 'NONE', #155, #88 ) ;
#29 = CARTESIAN_POINT ( 'NONE',  ( 0.000000000000000000, 0.000000000000000000, 0.000000000000000000 ) ) ;
#30 = DIRECTION ( 'NONE',  ( -1.000000000000000000, 0.000000000000000000, 0.000000000000000000 ) ) ;
#31 =( LENGTH_UNIT ( ) NAMED_UNIT ( * ) SI_UNIT ( .MILLI., .METRE. ) );
#32 = PRODUCT_DEFINITION ( 'NEZNÁMÝ', '', #201, #167 ) ;
#33 = CARTESIAN_POINT ( 'NONE',  ( 0.000000000000000000, 700.0000000000000000, 16.76000000000000156 ) ) ;
#34 = CARTESIAN_POINT ( 'NONE',  ( 0.000000000000000000, 700.0000000000000000, 0.000000000000000000 ) ) ;
#35 = FILL_AREA_STYLE ('',( #178 ) ) ;
#36 = LINE ( 'NONE', #29, #100 ) ;
#37 = CARTESIAN_POINT ( 'NONE',  ( 0.000000000000000000, 0.000000000000000000, 16.76000000000000156 ) ) ;
#38 = VERTEX_POINT ( 'NONE', #152 ) ;
#39 = UNCERTAINTY_MEASURE_WITH_UNIT (LENGTH_MEASURE( 1.000000000000000082E-05 ), #31, 'distance_accuracy_value', 'NONE');
#40 = SURFACE_STYLE_FILL_AREA ( #123 ) ;
#41 = ORIENTED_EDGE ( 'NONE', *, *, #93, .F. ) ;
#42 =( NAMED_UNIT ( * ) PLANE_ANGLE_UNIT ( ) SI_UNIT ( $, .RADIAN. ) );
#43 = VECTOR ( 'NONE', #112, 1000.000000000000000 ) ;
#44 = MANIFOLD_SOLID_BREP ( 'Pøidat vysunutím1', #13 ) ;
#45 = ORIENTED_EDGE ( 'NONE', *, *, #94, .T. ) ;
#46 = APPLICATION_CONTEXT ( 'automotive_design' ) ;
#47 = EDGE_CURVE ( 'NONE', #202, #191, #173, .T. ) ;
#48 = DIRECTION ( 'NONE',  ( 0.000000000000000000, 0.000000000000000000, -1.000000000000000000 ) ) ;
#49 = CARTESIAN_POINT ( 'NONE',  ( 1200.000000000000000, 0.000000000000000000, 0.000000000000000000 ) ) ;
#50 = CARTESIAN_POINT ( 'NONE',  ( 0.000000000000000000, 0.000000000000000000, 16.76000000000000156 ) ) ;
#51 = DIRECTION ( 'NONE',  ( -1.000000000000000000, -0.000000000000000000, -0.000000000000000000 ) ) ;
#52 =( GEOMETRIC_REPRESENTATION_CONTEXT ( 3 ) GLOBAL_UNCERTAINTY_ASSIGNED_CONTEXT ( ( #117 ) ) GLOBAL_UNIT_ASSIGNED_CONTEXT ( ( #165, #73, #105 ) ) REPRESENTATION_CONTEXT ( 'NONE', 'WORKASPACE' ) );
#53 = ORIENTED_EDGE ( 'NONE', *, *, #17, .F. ) ;
#54 = CARTESIAN_POINT ( 'NONE',  ( 1200.000000000000000, 0.000000000000000000, 16.76000000000000156 ) ) ;
#55 = FACE_OUTER_BOUND ( 'NONE', #87, .T. ) ;
#56 =( GEOMETRIC_REPRESENTATION_CONTEXT ( 3 ) GLOBAL_UNCERTAINTY_ASSIGNED_CONTEXT ( ( #39 ) ) GLOBAL_UNIT_ASSIGNED_CONTEXT ( ( #31, #42, #138 ) ) REPRESENTATION_CONTEXT ( 'NONE', 'WORKASPACE' ) );
#57 = DIRECTION ( 'NONE',  ( 0.000000000000000000, 0.000000000000000000, -1.000000000000000000 ) ) ;
#58 = ORIENTED_EDGE ( 'NONE', *, *, #145, .T. ) ;
#59 = APPLICATION_PROTOCOL_DEFINITION ( 'draft international standard', 'automotive_design', 1998, #46 ) ;
#60 = ORIENTED_EDGE ( 'NONE', *, *, #47, .F. ) ;
#61 = ADVANCED_FACE ( 'NONE', ( #188 ), #148, .F. ) ;
#62 = PLANE ( 'NONE',  #66 ) ;
#63 = ORIENTED_EDGE ( 'NONE', *, *, #85, .F. ) ;
#64 = AXIS2_PLACEMENT_3D ( 'NONE', #2, #67, #128 ) ;
#65 = EDGE_LOOP ( 'NONE', ( #137, #169, #45, #26 ) ) ;
#66 = AXIS2_PLACEMENT_3D ( 'NONE', #198, #30, #197 ) ;
#67 = DIRECTION ( 'NONE',  ( 0.000000000000000000, -1.000000000000000000, 0.000000000000000000 ) ) ;
#68 = LINE ( 'NONE', #99, #174 ) ;
#69 = DIRECTION ( 'NONE',  ( 0.000000000000000000, 0.000000000000000000, -1.000000000000000000 ) ) ;
#70 = EDGE_CURVE ( 'NONE', #179, #186, #68, .T. ) ;
#71 = CARTESIAN_POINT ( 'NONE',  ( 0.000000000000000000, 0.000000000000000000, 0.000000000000000000 ) ) ;
#72 = VERTEX_POINT ( 'NONE', #20 ) ;
#73 =( NAMED_UNIT ( * ) PLANE_ANGLE_UNIT ( ) SI_UNIT ( $, .RADIAN. ) );
#74 = ORIENTED_EDGE ( 'NONE', *, *, #21, .F. ) ;
#75 = STYLED_ITEM ( 'NONE', ( #124 ), #163 ) ;
#76 = CARTESIAN_POINT ( 'NONE',  ( 1200.000000000000000, 700.0000000000000000, 16.76000000000000156 ) ) ;
#77 = ORIENTED_EDGE ( 'NONE', *, *, #94, .F. ) ;
#78 = ADVANCED_FACE ( 'NONE', ( #22 ), #189, .F. ) ;
#79 = EDGE_CURVE ( 'NONE', #38, #202, #149, .T. ) ;
#80 = AXIS2_PLACEMENT_3D ( 'NONE', #129, #48, #84 ) ;
#81 = DIRECTION ( 'NONE',  ( 0.000000000000000000, 1.000000000000000000, 0.000000000000000000 ) ) ;
#82 = MECHANICAL_DESIGN_GEOMETRIC_PRESENTATION_REPRESENTATION (  '', ( #75 ), #56 ) ;
#83 = CARTESIAN_POINT ( 'NONE',  ( 0.000000000000000000, 0.000000000000000000, 16.76000000000000156 ) ) ;
#84 = DIRECTION ( 'NONE',  ( -1.000000000000000000, 0.000000000000000000, -0.000000000000000000 ) ) ;
#85 = EDGE_CURVE ( 'NONE', #179, #38, #5, .T. ) ;
#86 = CARTESIAN_POINT ( 'NONE',  ( 0.000000000000000000, 0.000000000000000000, 16.76000000000000156 ) ) ;
#87 = EDGE_LOOP ( 'NONE', ( #156, #199, #77, #158 ) ) ;
#88 = VECTOR ( 'NONE', #153, 1000.000000000000000 ) ;
#89 = PLANE ( 'NONE',  #143 ) ;
#90 = DIRECTION ( 'NONE',  ( 1.000000000000000000, 0.000000000000000000, 0.000000000000000000 ) ) ;
#91 = PLANE ( 'NONE',  #1 ) ;
#92 = VECTOR ( 'NONE', #103, 1000.000000000000000 ) ;
#93 = EDGE_CURVE ( 'NONE', #72, #142, #161, .T. ) ;
#94 = EDGE_CURVE ( 'NONE', #191, #179, #18, .T. ) ;
#95 =( LENGTH_UNIT ( ) NAMED_UNIT ( * ) SI_UNIT ( .MILLI., .METRE. ) );
#96 = DIRECTION ( 'NONE',  ( -0.000000000000000000, -0.000000000000000000, -1.000000000000000000 ) ) ;
#97 = MECHANICAL_DESIGN_GEOMETRIC_PRESENTATION_REPRESENTATION (  '', ( #176 ), #192 ) ;
#98 =( NAMED_UNIT ( * ) PLANE_ANGLE_UNIT ( ) SI_UNIT ( $, .RADIAN. ) );
#99 = CARTESIAN_POINT ( 'NONE',  ( 1200.000000000000000, 700.0000000000000000, 16.76000000000000156 ) ) ;
#100 = VECTOR ( 'NONE', #90, 1000.000000000000000 ) ;
#101 = ADVANCED_FACE ( 'NONE', ( #146 ), #175, .F. ) ;
#102 = PRODUCT_DEFINITION_SHAPE ( 'NONE', 'NONE',  #32 ) ;
#103 = DIRECTION ( 'NONE',  ( -0.000000000000000000, -0.000000000000000000, -1.000000000000000000 ) ) ;
#104 = ORIENTED_EDGE ( 'NONE', *, *, #17, .T. ) ;
#105 =( NAMED_UNIT ( * ) SI_UNIT ( $, .STERADIAN. ) SOLID_ANGLE_UNIT ( ) );
#106 = SHAPE_DEFINITION_REPRESENTATION ( #102, #163 ) ;
#107 = VERTEX_POINT ( 'NONE', #49 ) ;
#108 = VECTOR ( 'NONE', #81, 1000.000000000000000 ) ;
#109 = DIRECTION ( 'NONE',  ( 1.000000000000000000, 0.000000000000000000, 0.000000000000000000 ) ) ;
#110 = CARTESIAN_POINT ( 'NONE',  ( 1200.000000000000000, 0.000000000000000000, 16.76000000000000156 ) ) ;
#111 = LINE ( 'NONE', #34, #19 ) ;
#112 = DIRECTION ( 'NONE',  ( -0.000000000000000000, -1.000000000000000000, -0.000000000000000000 ) ) ;
#113 = VECTOR ( 'NONE', #51, 1000.000000000000000 ) ;
#114 = PRESENTATION_LAYER_ASSIGNMENT (  '', '', ( #75 ) ) ;
#115 = COLOUR_RGB ( '',0.7529411764705882248, 0.7529411764705882248, 0.7529411764705882248 ) ;
#116 = PRESENTATION_STYLE_ASSIGNMENT (( #184 ) ) ;
#117 = UNCERTAINTY_MEASURE_WITH_UNIT (LENGTH_MEASURE( 1.000000000000000082E-05 ), #165, 'distance_accuracy_value', 'NONE');
#118 = CARTESIAN_POINT ( 'NONE',  ( 1200.000000000000000, 0.000000000000000000, 0.000000000000000000 ) ) ;
#119 = DIRECTION ( 'NONE',  ( 0.000000000000000000, -0.000000000000000000, 1.000000000000000000 ) ) ;
#120 = DIRECTION ( 'NONE',  ( -1.000000000000000000, -0.000000000000000000, -0.000000000000000000 ) ) ;
#121 = PRODUCT_CONTEXT ( 'NONE', #46, 'mechanical' ) ;
#122 = ORIENTED_EDGE ( 'NONE', *, *, #187, .F. ) ;
#123 = FILL_AREA_STYLE ('',( #8 ) ) ;
#124 = PRESENTATION_STYLE_ASSIGNMENT (( #141 ) ) ;
#125 = EDGE_LOOP ( 'NONE', ( #10, #74, #63, #12 ) ) ;
#126 = DIRECTION ( 'NONE',  ( -0.000000000000000000, -1.000000000000000000, -0.000000000000000000 ) ) ;
#127 = APPLICATION_CONTEXT ( 'automotive_design' ) ;
#128 = DIRECTION ( 'NONE',  ( 0.000000000000000000, -0.000000000000000000, -1.000000000000000000 ) ) ;
#129 = CARTESIAN_POINT ( 'NONE',  ( 0.000000000000000000, 0.000000000000000000, 16.76000000000000156 ) ) ;
#130 =( NAMED_UNIT ( * ) SI_UNIT ( $, .STERADIAN. ) SOLID_ANGLE_UNIT ( ) );
#131 = CARTESIAN_POINT ( 'NONE',  ( 0.000000000000000000, 0.000000000000000000, 0.000000000000000000 ) ) ;
#132 = CARTESIAN_POINT ( 'NONE',  ( 1200.000000000000000, 700.0000000000000000, 0.000000000000000000 ) ) ;
#133 = VECTOR ( 'NONE', #147, 1000.000000000000000 ) ;
#134 = SURFACE_SIDE_STYLE ('',( #40 ) ) ;
#135 = LINE ( 'NONE', #118, #162 ) ;
#136 = EDGE_LOOP ( 'NONE', ( #171, #181, #172, #144 ) ) ;
#137 = ORIENTED_EDGE ( 'NONE', *, *, #79, .T. ) ;
#138 =( NAMED_UNIT ( * ) SI_UNIT ( $, .STERADIAN. ) SOLID_ANGLE_UNIT ( ) );
#139 = CARTESIAN_POINT ( 'NONE',  ( 0.000000000000000000, 700.0000000000000000, 16.76000000000000156 ) ) ;
#140 = EDGE_CURVE ( 'NONE', #186, #72, #111, .T. ) ;
#141 = SURFACE_STYLE_USAGE ( .BOTH. , #24 ) ;
#142 = VERTEX_POINT ( 'NONE', #168 ) ;
#143 = AXIS2_PLACEMENT_3D ( 'NONE', #71, #57, #194 ) ;
#144 = ORIENTED_EDGE ( 'NONE', *, *, #21, .T. ) ;
#145 = EDGE_CURVE ( 'NONE', #202, #142, #11, .T. ) ;
#146 = FACE_OUTER_BOUND ( 'NONE', #125, .T. ) ;
#147 = DIRECTION ( 'NONE',  ( 1.000000000000000000, 0.000000000000000000, 0.000000000000000000 ) ) ;
#148 = PLANE ( 'NONE',  #200 ) ;
#149 = LINE ( 'NONE', #50, #193 ) ;
#150 = PRODUCT_RELATED_PRODUCT_CATEGORY ( 'part', '', ( #23 ) ) ;
#151 = CARTESIAN_POINT ( 'NONE',  ( 0.000000000000000000, 0.000000000000000000, 16.76000000000000156 ) ) ;
#152 = CARTESIAN_POINT ( 'NONE',  ( 0.000000000000000000, 700.0000000000000000, 16.76000000000000156 ) ) ;
#153 = DIRECTION ( 'NONE',  ( -0.000000000000000000, -0.000000000000000000, -1.000000000000000000 ) ) ;
#154 = ORIENTED_EDGE ( 'NONE', *, *, #140, .F. ) ;
#155 = CARTESIAN_POINT ( 'NONE',  ( 1200.000000000000000, 0.000000000000000000, 16.76000000000000156 ) ) ;
#156 = ORIENTED_EDGE ( 'NONE', *, *, #187, .T. ) ;
#157 = APPLICATION_PROTOCOL_DEFINITION ( 'draft international standard', 'automotive_design', 1998, #127 ) ;
#158 = ORIENTED_EDGE ( 'NONE', *, *, #177, .T. ) ;
#159 = PRESENTATION_LAYER_ASSIGNMENT (  '', '', ( #176 ) ) ;
#160 = CARTESIAN_POINT ( 'NONE',  ( 0.000000000000000000, 0.000000000000000000, 0.000000000000000000 ) ) ;
#161 = LINE ( 'NONE', #131, #43 ) ;
#162 = VECTOR ( 'NONE', #7, 1000.000000000000000 ) ;
#163 = ADVANCED_BREP_SHAPE_REPRESENTATION ( 'GS_16c76-120x70-VSG_ESG', ( #44, #196 ), #52 ) ;
#164 = SURFACE_STYLE_FILL_AREA ( #35 ) ;
#165 =( LENGTH_UNIT ( ) NAMED_UNIT ( * ) SI_UNIT ( .MILLI., .METRE. ) );
#166 = ORIENTED_EDGE ( 'NONE', *, *, #177, .F. ) ;
#167 = PRODUCT_DEFINITION_CONTEXT ( 'detailed design', #127, 'design' ) ;
#168 = CARTESIAN_POINT ( 'NONE',  ( 0.000000000000000000, 0.000000000000000000, 0.000000000000000000 ) ) ;
#169 = ORIENTED_EDGE ( 'NONE', *, *, #47, .T. ) ;
#170 = EDGE_LOOP ( 'NONE', ( #41, #154, #122, #53 ) ) ;
#171 = ORIENTED_EDGE ( 'NONE', *, *, #93, .T. ) ;
#172 = ORIENTED_EDGE ( 'NONE', *, *, #79, .F. ) ;
#173 = LINE ( 'NONE', #83, #133 ) ;
#174 = VECTOR ( 'NONE', #96, 1000.000000000000000 ) ;
#175 = PLANE ( 'NONE',  #64 ) ;
#176 = STYLED_ITEM ( 'NONE', ( #116 ), #44 ) ;
#177 = EDGE_CURVE ( 'NONE', #191, #107, #28, .T. ) ;
#178 = FILL_AREA_STYLE_COLOUR ( '', #185 ) ;
#179 = VERTEX_POINT ( 'NONE', #76 ) ;
#180 = DIRECTION ( 'NONE',  ( -0.000000000000000000, -0.000000000000000000, -1.000000000000000000 ) ) ;
#181 = ORIENTED_EDGE ( 'NONE', *, *, #145, .F. ) ;
#182 = LINE ( 'NONE', #139, #92 ) ;
#183 = EDGE_LOOP ( 'NONE', ( #104, #166, #60, #58 ) ) ;
#184 = SURFACE_STYLE_USAGE ( .BOTH. , #134 ) ;
#185 = COLOUR_RGB ( '',0.7529411764705882248, 0.7529411764705882248, 0.7529411764705882248 ) ;
#186 = VERTEX_POINT ( 'NONE', #132 ) ;
#187 = EDGE_CURVE ( 'NONE', #107, #186, #135, .T. ) ;
#188 = FACE_OUTER_BOUND ( 'NONE', #136, .T. ) ;
#189 = PLANE ( 'NONE',  #80 ) ;
#190 = ADVANCED_FACE ( 'NONE', ( #9 ), #89, .T. ) ;
#191 = VERTEX_POINT ( 'NONE', #54 ) ;
#192 =( GEOMETRIC_REPRESENTATION_CONTEXT ( 3 ) GLOBAL_UNCERTAINTY_ASSIGNED_CONTEXT ( ( #195 ) ) GLOBAL_UNIT_ASSIGNED_CONTEXT ( ( #95, #98, #130 ) ) REPRESENTATION_CONTEXT ( 'NONE', 'WORKASPACE' ) );
#193 = VECTOR ( 'NONE', #126, 1000.000000000000000 ) ;
#194 = DIRECTION ( 'NONE',  ( -1.000000000000000000, 0.000000000000000000, -0.000000000000000000 ) ) ;
#195 = UNCERTAINTY_MEASURE_WITH_UNIT (LENGTH_MEASURE( 1.000000000000000082E-05 ), #95, 'distance_accuracy_value', 'NONE');
#196 = AXIS2_PLACEMENT_3D ( 'NONE', #160, #15, #109 ) ;
#197 = DIRECTION ( 'NONE',  ( 0.000000000000000000, 0.000000000000000000, 1.000000000000000000 ) ) ;
#198 = CARTESIAN_POINT ( 'NONE',  ( 1200.000000000000000, 0.000000000000000000, 16.76000000000000156 ) ) ;
#199 = ORIENTED_EDGE ( 'NONE', *, *, #70, .F. ) ;
#200 = AXIS2_PLACEMENT_3D ( 'NONE', #4, #3, #69 ) ;
#201 = PRODUCT_DEFINITION_FORMATION_WITH_SPECIFIED_SOURCE ( 'LIBOVOLNÝ', '', #23, .NOT_KNOWN. ) ;
#202 = VERTEX_POINT ( 'NONE', #37 ) ;
ENDSEC;
END-ISO-10303-21;
