ISO-10303-21;
HEADER;
FILE_DESCRIPTION (( 'STEP AP214' ),
    '1' );
FILE_NAME ('GS_16c76-120x90-VSG_ESG.STEP',
    '2021-08-16T07:51:35',
    ( '' ),
    ( '' ),
    'SwSTEP 2.0',
    'SolidWorks 2019',
    '' );
FILE_SCHEMA (( 'AUTOMOTIVE_DESIGN' ));
ENDSEC;

DATA;
#1 = CARTESIAN_POINT ( 'NONE',  ( 0.000000000000000000, 900.0000000000000000, 16.76000000000000156 ) ) ;
#2 = DIRECTION ( 'NONE',  ( 0.000000000000000000, 0.000000000000000000, -1.000000000000000000 ) ) ;
#3 = MANIFOLD_SOLID_BREP ( 'Pøidat vysunutím1', #129 ) ;
#4 =( LENGTH_UNIT ( ) NAMED_UNIT ( * ) SI_UNIT ( .MILLI., .METRE. ) );
#5 = ORIENTED_EDGE ( 'NONE', *, *, #163, .F. ) ;
#6 = CARTESIAN_POINT ( 'NONE',  ( 1200.000000000000000, 0.000000000000000000, 16.76000000000000156 ) ) ;
#7 = EDGE_LOOP ( 'NONE', ( #165, #177, #59, #82 ) ) ;
#8 = SURFACE_SIDE_STYLE ('',( #151 ) ) ;
#9 = ORIENTED_EDGE ( 'NONE', *, *, #117, .F. ) ;
#10 = CARTESIAN_POINT ( 'NONE',  ( 1200.000000000000000, 900.0000000000000000, 16.76000000000000156 ) ) ;
#11 = ADVANCED_FACE ( 'NONE', ( #28 ), #88, .F. ) ;
#12 = DIRECTION ( 'NONE',  ( 0.000000000000000000, -1.000000000000000000, 0.000000000000000000 ) ) ;
#13 = MECHANICAL_DESIGN_GEOMETRIC_PRESENTATION_REPRESENTATION (  '', ( #90 ), #111 ) ;
#14 = APPLICATION_CONTEXT ( 'automotive_design' ) ;
#15 = DIRECTION ( 'NONE',  ( 0.000000000000000000, 0.000000000000000000, 1.000000000000000000 ) ) ;
#16 = EDGE_CURVE ( 'NONE', #139, #79, #113, .T. ) ;
#17 = VECTOR ( 'NONE', #178, 1000.000000000000000 ) ;
#18 = PLANE ( 'NONE',  #95 ) ;
#19 =( LENGTH_UNIT ( ) NAMED_UNIT ( * ) SI_UNIT ( .MILLI., .METRE. ) );
#20 = CARTESIAN_POINT ( 'NONE',  ( 0.000000000000000000, 0.000000000000000000, 16.76000000000000156 ) ) ;
#21 = EDGE_LOOP ( 'NONE', ( #133, #141, #5, #119 ) ) ;
#22 = FILL_AREA_STYLE_COLOUR ( '', #185 ) ;
#23 = ADVANCED_FACE ( 'NONE', ( #60 ), #92, .F. ) ;
#24 = ORIENTED_EDGE ( 'NONE', *, *, #169, .T. ) ;
#25 = PLANE ( 'NONE',  #202 ) ;
#26 = PRODUCT_DEFINITION_CONTEXT ( 'detailed design', #36, 'design' ) ;
#27 = VECTOR ( 'NONE', #102, 1000.000000000000000 ) ;
#28 = FACE_OUTER_BOUND ( 'NONE', #56, .T. ) ;
#29 = LINE ( 'NONE', #66, #17 ) ;
#30 = AXIS2_PLACEMENT_3D ( 'NONE', #33, #15, #91 ) ;
#31 =( NAMED_UNIT ( * ) PLANE_ANGLE_UNIT ( ) SI_UNIT ( $, .RADIAN. ) );
#32 = EDGE_LOOP ( 'NONE', ( #84, #125, #39, #142 ) ) ;
#33 = CARTESIAN_POINT ( 'NONE',  ( 0.000000000000000000, 0.000000000000000000, 0.000000000000000000 ) ) ;
#34 =( NAMED_UNIT ( * ) SI_UNIT ( $, .STERADIAN. ) SOLID_ANGLE_UNIT ( ) );
#35 = ADVANCED_FACE ( 'NONE', ( #62 ), #77, .T. ) ;
#36 = APPLICATION_CONTEXT ( 'automotive_design' ) ;
#37 = LINE ( 'NONE', #1, #45 ) ;
#38 = DIRECTION ( 'NONE',  ( -1.000000000000000000, 0.000000000000000000, -0.000000000000000000 ) ) ;
#39 = ORIENTED_EDGE ( 'NONE', *, *, #189, .F. ) ;
#40 = LINE ( 'NONE', #138, #27 ) ;
#41 = ORIENTED_EDGE ( 'NONE', *, *, #42, .T. ) ;
#42 = EDGE_CURVE ( 'NONE', #79, #150, #37, .T. ) ;
#43 = FACE_OUTER_BOUND ( 'NONE', #7, .T. ) ;
#44 =( NAMED_UNIT ( * ) PLANE_ANGLE_UNIT ( ) SI_UNIT ( $, .RADIAN. ) );
#45 = VECTOR ( 'NONE', #63, 1000.000000000000000 ) ;
#46 = EDGE_LOOP ( 'NONE', ( #106, #148, #158, #41 ) ) ;
#47 = ORIENTED_EDGE ( 'NONE', *, *, #51, .T. ) ;
#48 =( GEOMETRIC_REPRESENTATION_CONTEXT ( 3 ) GLOBAL_UNCERTAINTY_ASSIGNED_CONTEXT ( ( #180 ) ) GLOBAL_UNIT_ASSIGNED_CONTEXT ( ( #19, #44, #190 ) ) REPRESENTATION_CONTEXT ( 'NONE', 'WORKASPACE' ) );
#49 = EDGE_CURVE ( 'NONE', #123, #150, #130, .T. ) ;
#50 = DIRECTION ( 'NONE',  ( -1.000000000000000000, 0.000000000000000000, 0.000000000000000000 ) ) ;
#51 = EDGE_CURVE ( 'NONE', #174, #197, #170, .T. ) ;
#52 = AXIS2_PLACEMENT_3D ( 'NONE', #171, #2, #145 ) ;
#53 = CARTESIAN_POINT ( 'NONE',  ( 1200.000000000000000, 900.0000000000000000, 0.000000000000000000 ) ) ;
#54 = CARTESIAN_POINT ( 'NONE',  ( 0.000000000000000000, 0.000000000000000000, 16.76000000000000156 ) ) ;
#55 = DIRECTION ( 'NONE',  ( -0.000000000000000000, -1.000000000000000000, -0.000000000000000000 ) ) ;
#56 = EDGE_LOOP ( 'NONE', ( #24, #9, #146, #47 ) ) ;
#57 = DIRECTION ( 'NONE',  ( 1.000000000000000000, 0.000000000000000000, 0.000000000000000000 ) ) ;
#58 = CARTESIAN_POINT ( 'NONE',  ( 0.000000000000000000, 0.000000000000000000, 16.76000000000000156 ) ) ;
#59 = ORIENTED_EDGE ( 'NONE', *, *, #189, .T. ) ;
#60 = FACE_OUTER_BOUND ( 'NONE', #32, .T. ) ;
#61 = ADVANCED_FACE ( 'NONE', ( #162 ), #18, .F. ) ;
#62 = FACE_OUTER_BOUND ( 'NONE', #21, .T. ) ;
#63 = DIRECTION ( 'NONE',  ( -0.000000000000000000, -0.000000000000000000, -1.000000000000000000 ) ) ;
#64 = PRODUCT_DEFINITION_SHAPE ( 'NONE', 'NONE',  #78 ) ;
#65 = FILL_AREA_STYLE ('',( #136 ) ) ;
#66 = CARTESIAN_POINT ( 'NONE',  ( 1200.000000000000000, 0.000000000000000000, 16.76000000000000156 ) ) ;
#67 = DIRECTION ( 'NONE',  ( 0.000000000000000000, 1.000000000000000000, 0.000000000000000000 ) ) ;
#68 = DIRECTION ( 'NONE',  ( 0.000000000000000000, 1.000000000000000000, 0.000000000000000000 ) ) ;
#69 = LINE ( 'NONE', #97, #110 ) ;
#70 = VECTOR ( 'NONE', #55, 1000.000000000000000 ) ;
#71 = ORIENTED_EDGE ( 'NONE', *, *, #16, .F. ) ;
#72 = LINE ( 'NONE', #132, #137 ) ;
#73 = COLOUR_RGB ( '',0.7529411764705882248, 0.7529411764705882248, 0.7529411764705882248 ) ;
#74 = CARTESIAN_POINT ( 'NONE',  ( 1200.000000000000000, 0.000000000000000000, 16.76000000000000156 ) ) ;
#75 = CARTESIAN_POINT ( 'NONE',  ( 0.000000000000000000, 900.0000000000000000, 0.000000000000000000 ) ) ;
#76 = VECTOR ( 'NONE', #67, 1000.000000000000000 ) ;
#77 = PLANE ( 'NONE',  #52 ) ;
#78 = PRODUCT_DEFINITION ( 'NEZNÁMÝ', '', #108, #26 ) ;
#79 = VERTEX_POINT ( 'NONE', #166 ) ;
#80 =( NAMED_UNIT ( * ) PLANE_ANGLE_UNIT ( ) SI_UNIT ( $, .RADIAN. ) );
#81 = CARTESIAN_POINT ( 'NONE',  ( 0.000000000000000000, 0.000000000000000000, 0.000000000000000000 ) ) ;
#82 = ORIENTED_EDGE ( 'NONE', *, *, #16, .T. ) ;
#83 = FILL_AREA_STYLE ('',( #22 ) ) ;
#84 = ORIENTED_EDGE ( 'NONE', *, *, #163, .T. ) ;
#85 = DIRECTION ( 'NONE',  ( 1.000000000000000000, 0.000000000000000000, 0.000000000000000000 ) ) ;
#86 = VECTOR ( 'NONE', #154, 1000.000000000000000 ) ;
#87 = EDGE_CURVE ( 'NONE', #150, #197, #99, .T. ) ;
#88 = PLANE ( 'NONE',  #187 ) ;
#89 = CARTESIAN_POINT ( 'NONE',  ( 0.000000000000000000, 900.0000000000000000, 0.000000000000000000 ) ) ;
#90 = STYLED_ITEM ( 'NONE', ( #186 ), #176 ) ;
#91 = DIRECTION ( 'NONE',  ( 1.000000000000000000, 0.000000000000000000, 0.000000000000000000 ) ) ;
#92 = PLANE ( 'NONE',  #131 ) ;
#93 = PRESENTATION_LAYER_ASSIGNMENT (  '', '', ( #90 ) ) ;
#94 = EDGE_CURVE ( 'NONE', #174, #168, #175, .T. ) ;
#95 = AXIS2_PLACEMENT_3D ( 'NONE', #124, #12, #118 ) ;
#96 = PRODUCT ( 'GS_16c76-120x90-VSG_ESG', 'GS_16c76-120x90-VSG_ESG', '', ( #156 ) ) ;
#97 = CARTESIAN_POINT ( 'NONE',  ( 1200.000000000000000, 0.000000000000000000, 0.000000000000000000 ) ) ;
#98 = CARTESIAN_POINT ( 'NONE',  ( 0.000000000000000000, 900.0000000000000000, 16.76000000000000156 ) ) ;
#99 = LINE ( 'NONE', #81, #86 ) ;
#100 = PRESENTATION_LAYER_ASSIGNMENT (  '', '', ( #188 ) ) ;
#101 = ORIENTED_EDGE ( 'NONE', *, *, #172, .T. ) ;
#102 = DIRECTION ( 'NONE',  ( -0.000000000000000000, -0.000000000000000000, -1.000000000000000000 ) ) ;
#103 = FACE_OUTER_BOUND ( 'NONE', #46, .T. ) ;
#104 = UNCERTAINTY_MEASURE_WITH_UNIT (LENGTH_MEASURE( 1.000000000000000082E-05 ), #4, 'distance_accuracy_value', 'NONE');
#105 = VECTOR ( 'NONE', #109, 1000.000000000000000 ) ;
#106 = ORIENTED_EDGE ( 'NONE', *, *, #87, .T. ) ;
#107 = APPLICATION_PROTOCOL_DEFINITION ( 'draft international standard', 'automotive_design', 1998, #36 ) ;
#108 = PRODUCT_DEFINITION_FORMATION_WITH_SPECIFIED_SOURCE ( 'LIBOVOLNÝ', '', #96, .NOT_KNOWN. ) ;
#109 = DIRECTION ( 'NONE',  ( -1.000000000000000000, -0.000000000000000000, -0.000000000000000000 ) ) ;
#110 = VECTOR ( 'NONE', #181, 1000.000000000000000 ) ;
#111 =( GEOMETRIC_REPRESENTATION_CONTEXT ( 3 ) GLOBAL_UNCERTAINTY_ASSIGNED_CONTEXT ( ( #122 ) ) GLOBAL_UNIT_ASSIGNED_CONTEXT ( ( #157, #31, #34 ) ) REPRESENTATION_CONTEXT ( 'NONE', 'WORKASPACE' ) );
#112 = DIRECTION ( 'NONE',  ( 0.000000000000000000, 0.000000000000000000, -1.000000000000000000 ) ) ;
#113 = LINE ( 'NONE', #98, #173 ) ;
#114 = APPLICATION_PROTOCOL_DEFINITION ( 'draft international standard', 'automotive_design', 1998, #14 ) ;
#115 = CARTESIAN_POINT ( 'NONE',  ( 0.000000000000000000, 0.000000000000000000, 16.76000000000000156 ) ) ;
#116 = SURFACE_STYLE_FILL_AREA ( #65 ) ;
#117 = EDGE_CURVE ( 'NONE', #168, #183, #29, .T. ) ;
#118 = DIRECTION ( 'NONE',  ( 0.000000000000000000, -0.000000000000000000, -1.000000000000000000 ) ) ;
#119 = ORIENTED_EDGE ( 'NONE', *, *, #169, .F. ) ;
#120 = PRODUCT_RELATED_PRODUCT_CATEGORY ( 'part', '', ( #96 ) ) ;
#121 = CARTESIAN_POINT ( 'NONE',  ( 1200.000000000000000, 0.000000000000000000, 16.76000000000000156 ) ) ;
#122 = UNCERTAINTY_MEASURE_WITH_UNIT (LENGTH_MEASURE( 1.000000000000000082E-05 ), #157, 'distance_accuracy_value', 'NONE');
#123 = VERTEX_POINT ( 'NONE', #53 ) ;
#124 = CARTESIAN_POINT ( 'NONE',  ( 0.000000000000000000, 900.0000000000000000, 16.76000000000000156 ) ) ;
#125 = ORIENTED_EDGE ( 'NONE', *, *, #172, .F. ) ;
#126 = VECTOR ( 'NONE', #57, 1000.000000000000000 ) ;
#127 = CARTESIAN_POINT ( 'NONE',  ( 0.000000000000000000, 0.000000000000000000, 16.76000000000000156 ) ) ;
#128 = ADVANCED_FACE ( 'NONE', ( #103 ), #25, .F. ) ;
#129 = CLOSED_SHELL ( 'NONE', ( #128, #11, #23, #61, #135, #35 ) ) ;
#130 = LINE ( 'NONE', #75, #105 ) ;
#131 = AXIS2_PLACEMENT_3D ( 'NONE', #74, #50, #144 ) ;
#132 = CARTESIAN_POINT ( 'NONE',  ( 0.000000000000000000, 0.000000000000000000, 0.000000000000000000 ) ) ;
#133 = ORIENTED_EDGE ( 'NONE', *, *, #87, .F. ) ;
#134 = DIRECTION ( 'NONE',  ( 0.000000000000000000, 0.000000000000000000, -1.000000000000000000 ) ) ;
#135 = ADVANCED_FACE ( 'NONE', ( #43 ), #164, .F. ) ;
#136 = FILL_AREA_STYLE_COLOUR ( '', #73 ) ;
#137 = VECTOR ( 'NONE', #196, 1000.000000000000000 ) ;
#138 = CARTESIAN_POINT ( 'NONE',  ( 1200.000000000000000, 900.0000000000000000, 16.76000000000000156 ) ) ;
#139 = VERTEX_POINT ( 'NONE', #10 ) ;
#140 = CARTESIAN_POINT ( 'NONE',  ( 0.000000000000000000, 0.000000000000000000, 16.76000000000000156 ) ) ;
#141 = ORIENTED_EDGE ( 'NONE', *, *, #49, .F. ) ;
#142 = ORIENTED_EDGE ( 'NONE', *, *, #117, .T. ) ;
#143 = DIRECTION ( 'NONE',  ( -1.000000000000000000, -0.000000000000000000, -0.000000000000000000 ) ) ;
#144 = DIRECTION ( 'NONE',  ( 0.000000000000000000, 0.000000000000000000, 1.000000000000000000 ) ) ;
#145 = DIRECTION ( 'NONE',  ( -1.000000000000000000, 0.000000000000000000, -0.000000000000000000 ) ) ;
#146 = ORIENTED_EDGE ( 'NONE', *, *, #94, .F. ) ;
#147 =( NAMED_UNIT ( * ) SI_UNIT ( $, .STERADIAN. ) SOLID_ANGLE_UNIT ( ) );
#148 = ORIENTED_EDGE ( 'NONE', *, *, #51, .F. ) ;
#149 = LINE ( 'NONE', #6, #76 ) ;
#150 = VERTEX_POINT ( 'NONE', #89 ) ;
#151 = SURFACE_STYLE_FILL_AREA ( #83 ) ;
#152 = SURFACE_STYLE_USAGE ( .BOTH. , #200 ) ;
#153 = VECTOR ( 'NONE', #161, 1000.000000000000000 ) ;
#154 = DIRECTION ( 'NONE',  ( -0.000000000000000000, -1.000000000000000000, -0.000000000000000000 ) ) ;
#155 = DIRECTION ( 'NONE',  ( 0.000000000000000000, -0.000000000000000000, 1.000000000000000000 ) ) ;
#156 = PRODUCT_CONTEXT ( 'NONE', #14, 'mechanical' ) ;
#157 =( LENGTH_UNIT ( ) NAMED_UNIT ( * ) SI_UNIT ( .MILLI., .METRE. ) );
#158 = ORIENTED_EDGE ( 'NONE', *, *, #198, .F. ) ;
#159 = SURFACE_STYLE_USAGE ( .BOTH. , #8 ) ;
#160 = MECHANICAL_DESIGN_GEOMETRIC_PRESENTATION_REPRESENTATION (  '', ( #188 ), #48 ) ;
#161 = DIRECTION ( 'NONE',  ( -0.000000000000000000, -0.000000000000000000, -1.000000000000000000 ) ) ;
#162 = FACE_OUTER_BOUND ( 'NONE', #201, .T. ) ;
#163 = EDGE_CURVE ( 'NONE', #183, #123, #69, .T. ) ;
#164 = PLANE ( 'NONE',  #167 ) ;
#165 = ORIENTED_EDGE ( 'NONE', *, *, #198, .T. ) ;
#166 = CARTESIAN_POINT ( 'NONE',  ( 0.000000000000000000, 900.0000000000000000, 16.76000000000000156 ) ) ;
#167 = AXIS2_PLACEMENT_3D ( 'NONE', #179, #112, #38 ) ;
#168 = VERTEX_POINT ( 'NONE', #121 ) ;
#169 = EDGE_CURVE ( 'NONE', #197, #183, #72, .T. ) ;
#170 = LINE ( 'NONE', #127, #153 ) ;
#171 = CARTESIAN_POINT ( 'NONE',  ( 0.000000000000000000, 0.000000000000000000, 0.000000000000000000 ) ) ;
#172 = EDGE_CURVE ( 'NONE', #139, #123, #40, .T. ) ;
#173 = VECTOR ( 'NONE', #143, 1000.000000000000000 ) ;
#174 = VERTEX_POINT ( 'NONE', #20 ) ;
#175 = LINE ( 'NONE', #140, #126 ) ;
#176 = ADVANCED_BREP_SHAPE_REPRESENTATION ( 'GS_16c76-120x90-VSG_ESG', ( #3, #30 ), #192 ) ;
#177 = ORIENTED_EDGE ( 'NONE', *, *, #94, .T. ) ;
#178 = DIRECTION ( 'NONE',  ( -0.000000000000000000, -0.000000000000000000, -1.000000000000000000 ) ) ;
#179 = CARTESIAN_POINT ( 'NONE',  ( 0.000000000000000000, 0.000000000000000000, 16.76000000000000156 ) ) ;
#180 = UNCERTAINTY_MEASURE_WITH_UNIT (LENGTH_MEASURE( 1.000000000000000082E-05 ), #19, 'distance_accuracy_value', 'NONE');
#181 = DIRECTION ( 'NONE',  ( 0.000000000000000000, 1.000000000000000000, 0.000000000000000000 ) ) ;
#182 = ORIENTED_EDGE ( 'NONE', *, *, #49, .T. ) ;
#183 = VERTEX_POINT ( 'NONE', #199 ) ;
#184 = SHAPE_DEFINITION_REPRESENTATION ( #64, #176 ) ;
#185 = COLOUR_RGB ( '',0.7529411764705882248, 0.7529411764705882248, 0.7529411764705882248 ) ;
#186 = PRESENTATION_STYLE_ASSIGNMENT (( #159 ) ) ;
#187 = AXIS2_PLACEMENT_3D ( 'NONE', #54, #68, #155 ) ;
#188 = STYLED_ITEM ( 'NONE', ( #195 ), #3 ) ;
#189 = EDGE_CURVE ( 'NONE', #168, #139, #149, .T. ) ;
#190 =( NAMED_UNIT ( * ) SI_UNIT ( $, .STERADIAN. ) SOLID_ANGLE_UNIT ( ) );
#191 = CARTESIAN_POINT ( 'NONE',  ( 0.000000000000000000, 0.000000000000000000, 0.000000000000000000 ) ) ;
#192 =( GEOMETRIC_REPRESENTATION_CONTEXT ( 3 ) GLOBAL_UNCERTAINTY_ASSIGNED_CONTEXT ( ( #104 ) ) GLOBAL_UNIT_ASSIGNED_CONTEXT ( ( #4, #80, #147 ) ) REPRESENTATION_CONTEXT ( 'NONE', 'WORKASPACE' ) );
#193 = ORIENTED_EDGE ( 'NONE', *, *, #42, .F. ) ;
#194 = LINE ( 'NONE', #58, #70 ) ;
#195 = PRESENTATION_STYLE_ASSIGNMENT (( #152 ) ) ;
#196 = DIRECTION ( 'NONE',  ( 1.000000000000000000, 0.000000000000000000, 0.000000000000000000 ) ) ;
#197 = VERTEX_POINT ( 'NONE', #191 ) ;
#198 = EDGE_CURVE ( 'NONE', #79, #174, #194, .T. ) ;
#199 = CARTESIAN_POINT ( 'NONE',  ( 1200.000000000000000, 0.000000000000000000, 0.000000000000000000 ) ) ;
#200 = SURFACE_SIDE_STYLE ('',( #116 ) ) ;
#201 = EDGE_LOOP ( 'NONE', ( #182, #193, #71, #101 ) ) ;
#202 = AXIS2_PLACEMENT_3D ( 'NONE', #115, #85, #134 ) ;
ENDSEC;
END-ISO-10303-21;
