ISO-10303-21;
HEADER;
FILE_DESCRIPTION (( 'STEP AP214' ),
    '1' );
FILE_NAME ('GS_16c76-120x100-VSG_ESG.STEP',
    '2021-04-16T14:06:02',
    ( '' ),
    ( '' ),
    'SwSTEP 2.0',
    'SolidWorks 2019',
    '' );
FILE_SCHEMA (( 'AUTOMOTIVE_DESIGN' ));
ENDSEC;

DATA;
#1 = PRESENTATION_LAYER_ASSIGNMENT (  '', '', ( #41 ) ) ;
#2 = ADVANCED_FACE ( 'NONE', ( #24 ), #38, .F. ) ;
#3 = CARTESIAN_POINT ( 'NONE',  ( 1200.000000000000000, 0.000000000000000000, 16.76000000000000156 ) ) ;
#4 = UNCERTAINTY_MEASURE_WITH_UNIT (LENGTH_MEASURE( 1.000000000000000082E-05 ), #91, 'distance_accuracy_value', 'NONE');
#5 = LINE ( 'NONE', #49, #175 ) ;
#6 = PRESENTATION_STYLE_ASSIGNMENT (( #139 ) ) ;
#7 = DIRECTION ( 'NONE',  ( -1.000000000000000000, 0.000000000000000000, 0.000000000000000000 ) ) ;
#8 = DIRECTION ( 'NONE',  ( 0.000000000000000000, 1.000000000000000000, 0.000000000000000000 ) ) ;
#9 = AXIS2_PLACEMENT_3D ( 'NONE', #191, #110, #39 ) ;
#10 = PLANE ( 'NONE',  #11 ) ;
#11 = AXIS2_PLACEMENT_3D ( 'NONE', #25, #174, #27 ) ;
#12 = EDGE_CURVE ( 'NONE', #147, #194, #106, .T. ) ;
#13 = LINE ( 'NONE', #85, #132 ) ;
#14 = COLOUR_RGB ( '',0.7529411764705882248, 0.7529411764705882248, 0.7529411764705882248 ) ;
#15 = ORIENTED_EDGE ( 'NONE', *, *, #157, .F. ) ;
#16 = CARTESIAN_POINT ( 'NONE',  ( 1200.000000000000000, 1000.000000000000000, 0.000000000000000000 ) ) ;
#17 = ORIENTED_EDGE ( 'NONE', *, *, #74, .T. ) ;
#18 = PRODUCT ( 'GS_16c76-120x100-VSG_ESG', 'GS_16c76-120x100-VSG_ESG', '', ( #140 ) ) ;
#19 = SURFACE_STYLE_FILL_AREA ( #202 ) ;
#20 =( NAMED_UNIT ( * ) SI_UNIT ( $, .STERADIAN. ) SOLID_ANGLE_UNIT ( ) );
#21 = PLANE ( 'NONE',  #75 ) ;
#22 = EDGE_CURVE ( 'NONE', #181, #115, #51, .T. ) ;
#23 = DIRECTION ( 'NONE',  ( 1.000000000000000000, 0.000000000000000000, 0.000000000000000000 ) ) ;
#24 = FACE_OUTER_BOUND ( 'NONE', #28, .T. ) ;
#25 = CARTESIAN_POINT ( 'NONE',  ( 0.000000000000000000, 1000.000000000000000, 16.76000000000000156 ) ) ;
#26 = VECTOR ( 'NONE', #186, 1000.000000000000000 ) ;
#27 = DIRECTION ( 'NONE',  ( 0.000000000000000000, -0.000000000000000000, -1.000000000000000000 ) ) ;
#28 = EDGE_LOOP ( 'NONE', ( #69, #199, #145, #17 ) ) ;
#29 = PLANE ( 'NONE',  #114 ) ;
#30 = ORIENTED_EDGE ( 'NONE', *, *, #121, .F. ) ;
#31 = FACE_OUTER_BOUND ( 'NONE', #179, .T. ) ;
#32 =( LENGTH_UNIT ( ) NAMED_UNIT ( * ) SI_UNIT ( .MILLI., .METRE. ) );
#33 = PRODUCT_DEFINITION_CONTEXT ( 'detailed design', #71, 'design' ) ;
#34 = MANIFOLD_SOLID_BREP ( 'Pøidat vysunutím1', #193 ) ;
#35 = CARTESIAN_POINT ( 'NONE',  ( 0.000000000000000000, 1000.000000000000000, 0.000000000000000000 ) ) ;
#36 = STYLED_ITEM ( 'NONE', ( #165 ), #166 ) ;
#37 = LINE ( 'NONE', #138, #26 ) ;
#38 = PLANE ( 'NONE',  #156 ) ;
#39 = DIRECTION ( 'NONE',  ( 0.000000000000000000, -0.000000000000000000, 1.000000000000000000 ) ) ;
#40 = CARTESIAN_POINT ( 'NONE',  ( 0.000000000000000000, 0.000000000000000000, 0.000000000000000000 ) ) ;
#41 = STYLED_ITEM ( 'NONE', ( #6 ), #34 ) ;
#42 = ORIENTED_EDGE ( 'NONE', *, *, #95, .F. ) ;
#43 = CARTESIAN_POINT ( 'NONE',  ( 0.000000000000000000, 1000.000000000000000, 0.000000000000000000 ) ) ;
#44 = ORIENTED_EDGE ( 'NONE', *, *, #119, .T. ) ;
#45 = ORIENTED_EDGE ( 'NONE', *, *, #74, .F. ) ;
#46 = PLANE ( 'NONE',  #9 ) ;
#47 = ORIENTED_EDGE ( 'NONE', *, *, #22, .T. ) ;
#48 = CARTESIAN_POINT ( 'NONE',  ( 0.000000000000000000, 0.000000000000000000, 0.000000000000000000 ) ) ;
#49 = CARTESIAN_POINT ( 'NONE',  ( 0.000000000000000000, 1000.000000000000000, 16.76000000000000156 ) ) ;
#50 = FACE_OUTER_BOUND ( 'NONE', #159, .T. ) ;
#51 = LINE ( 'NONE', #124, #135 ) ;
#52 = VECTOR ( 'NONE', #171, 1000.000000000000000 ) ;
#53 = ORIENTED_EDGE ( 'NONE', *, *, #59, .F. ) ;
#54 = DIRECTION ( 'NONE',  ( -1.000000000000000000, 0.000000000000000000, -0.000000000000000000 ) ) ;
#55 = VECTOR ( 'NONE', #82, 1000.000000000000000 ) ;
#56 = VERTEX_POINT ( 'NONE', #3 ) ;
#57 = FACE_OUTER_BOUND ( 'NONE', #98, .T. ) ;
#58 = ORIENTED_EDGE ( 'NONE', *, *, #173, .T. ) ;
#59 = EDGE_CURVE ( 'NONE', #181, #86, #5, .T. ) ;
#60 =( GEOMETRIC_REPRESENTATION_CONTEXT ( 3 ) GLOBAL_UNCERTAINTY_ASSIGNED_CONTEXT ( ( #4 ) ) GLOBAL_UNIT_ASSIGNED_CONTEXT ( ( #91, #123, #169 ) ) REPRESENTATION_CONTEXT ( 'NONE', 'WORKASPACE' ) );
#61 = APPLICATION_CONTEXT ( 'automotive_design' ) ;
#62 = CARTESIAN_POINT ( 'NONE',  ( 0.000000000000000000, 0.000000000000000000, 16.76000000000000156 ) ) ;
#63 = CARTESIAN_POINT ( 'NONE',  ( 0.000000000000000000, 0.000000000000000000, 16.76000000000000156 ) ) ;
#64 = DIRECTION ( 'NONE',  ( -0.000000000000000000, -0.000000000000000000, -1.000000000000000000 ) ) ;
#65 =( LENGTH_UNIT ( ) NAMED_UNIT ( * ) SI_UNIT ( .MILLI., .METRE. ) );
#66 = FACE_OUTER_BOUND ( 'NONE', #196, .T. ) ;
#67 = LINE ( 'NONE', #162, #128 ) ;
#68 = VECTOR ( 'NONE', #116, 1000.000000000000000 ) ;
#69 = ORIENTED_EDGE ( 'NONE', *, *, #200, .T. ) ;
#70 = LINE ( 'NONE', #99, #89 ) ;
#71 = APPLICATION_CONTEXT ( 'automotive_design' ) ;
#72 = ORIENTED_EDGE ( 'NONE', *, *, #59, .T. ) ;
#73 = ORIENTED_EDGE ( 'NONE', *, *, #12, .F. ) ;
#74 = EDGE_CURVE ( 'NONE', #56, #176, #137, .T. ) ;
#75 = AXIS2_PLACEMENT_3D ( 'NONE', #63, #122, #78 ) ;
#76 = CARTESIAN_POINT ( 'NONE',  ( 1200.000000000000000, 0.000000000000000000, 16.76000000000000156 ) ) ;
#77 = DIRECTION ( 'NONE',  ( -0.000000000000000000, -0.000000000000000000, -1.000000000000000000 ) ) ;
#78 = DIRECTION ( 'NONE',  ( 0.000000000000000000, 0.000000000000000000, -1.000000000000000000 ) ) ;
#79 = SURFACE_SIDE_STYLE ('',( #109 ) ) ;
#80 = VERTEX_POINT ( 'NONE', #35 ) ;
#81 = EDGE_CURVE ( 'NONE', #147, #56, #153, .T. ) ;
#82 = DIRECTION ( 'NONE',  ( -1.000000000000000000, -0.000000000000000000, -0.000000000000000000 ) ) ;
#83 = VECTOR ( 'NONE', #23, 1000.000000000000000 ) ;
#84 = EDGE_LOOP ( 'NONE', ( #58, #73, #42, #96 ) ) ;
#85 = CARTESIAN_POINT ( 'NONE',  ( 0.000000000000000000, 1000.000000000000000, 16.76000000000000156 ) ) ;
#86 = VERTEX_POINT ( 'NONE', #90 ) ;
#87 =( NAMED_UNIT ( * ) PLANE_ANGLE_UNIT ( ) SI_UNIT ( $, .RADIAN. ) );
#88 = APPLICATION_PROTOCOL_DEFINITION ( 'draft international standard', 'automotive_design', 1998, #71 ) ;
#89 = VECTOR ( 'NONE', #131, 1000.000000000000000 ) ;
#90 = CARTESIAN_POINT ( 'NONE',  ( 0.000000000000000000, 1000.000000000000000, 16.76000000000000156 ) ) ;
#91 =( LENGTH_UNIT ( ) NAMED_UNIT ( * ) SI_UNIT ( .MILLI., .METRE. ) );
#92 = DIRECTION ( 'NONE',  ( -1.000000000000000000, -0.000000000000000000, -0.000000000000000000 ) ) ;
#93 = CARTESIAN_POINT ( 'NONE',  ( 0.000000000000000000, 0.000000000000000000, 16.76000000000000156 ) ) ;
#94 = ADVANCED_FACE ( 'NONE', ( #151 ), #21, .F. ) ;
#95 = EDGE_CURVE ( 'NONE', #86, #147, #37, .T. ) ;
#96 = ORIENTED_EDGE ( 'NONE', *, *, #121, .T. ) ;
#97 = DIRECTION ( 'NONE',  ( 0.000000000000000000, 0.000000000000000000, -1.000000000000000000 ) ) ;
#98 = EDGE_LOOP ( 'NONE', ( #44, #45, #148, #133 ) ) ;
#99 = CARTESIAN_POINT ( 'NONE',  ( 0.000000000000000000, 0.000000000000000000, 0.000000000000000000 ) ) ;
#100 = ORIENTED_EDGE ( 'NONE', *, *, #119, .F. ) ;
#101 = ADVANCED_FACE ( 'NONE', ( #50 ), #136, .F. ) ;
#102 = DIRECTION ( 'NONE',  ( 1.000000000000000000, 0.000000000000000000, 0.000000000000000000 ) ) ;
#103 = MECHANICAL_DESIGN_GEOMETRIC_PRESENTATION_REPRESENTATION (  '', ( #41 ), #60 ) ;
#104 = EDGE_CURVE ( 'NONE', #56, #181, #67, .T. ) ;
#105 = UNCERTAINTY_MEASURE_WITH_UNIT (LENGTH_MEASURE( 1.000000000000000082E-05 ), #32, 'distance_accuracy_value', 'NONE');
#106 = LINE ( 'NONE', #93, #120 ) ;
#107 =( GEOMETRIC_REPRESENTATION_CONTEXT ( 3 ) GLOBAL_UNCERTAINTY_ASSIGNED_CONTEXT ( ( #105 ) ) GLOBAL_UNIT_ASSIGNED_CONTEXT ( ( #32, #87, #20 ) ) REPRESENTATION_CONTEXT ( 'NONE', 'WORKASPACE' ) );
#108 = CARTESIAN_POINT ( 'NONE',  ( 0.000000000000000000, 0.000000000000000000, 16.76000000000000156 ) ) ;
#109 = SURFACE_STYLE_FILL_AREA ( #187 ) ;
#110 = DIRECTION ( 'NONE',  ( 0.000000000000000000, 1.000000000000000000, 0.000000000000000000 ) ) ;
#111 = AXIS2_PLACEMENT_3D ( 'NONE', #108, #195, #54 ) ;
#112 = ORIENTED_EDGE ( 'NONE', *, *, #173, .F. ) ;
#113 = DIRECTION ( 'NONE',  ( -0.000000000000000000, -0.000000000000000000, -1.000000000000000000 ) ) ;
#114 = AXIS2_PLACEMENT_3D ( 'NONE', #149, #97, #144 ) ;
#115 = VERTEX_POINT ( 'NONE', #16 ) ;
#116 = DIRECTION ( 'NONE',  ( 1.000000000000000000, 0.000000000000000000, 0.000000000000000000 ) ) ;
#117 = DIRECTION ( 'NONE',  ( 0.000000000000000000, 0.000000000000000000, 1.000000000000000000 ) ) ;
#118 = SURFACE_STYLE_USAGE ( .BOTH. , #167 ) ;
#119 = EDGE_CURVE ( 'NONE', #194, #176, #146, .T. ) ;
#120 = VECTOR ( 'NONE', #77, 1000.000000000000000 ) ;
#121 = EDGE_CURVE ( 'NONE', #86, #80, #13, .T. ) ;
#122 = DIRECTION ( 'NONE',  ( 1.000000000000000000, 0.000000000000000000, 0.000000000000000000 ) ) ;
#123 =( NAMED_UNIT ( * ) PLANE_ANGLE_UNIT ( ) SI_UNIT ( $, .RADIAN. ) );
#124 = CARTESIAN_POINT ( 'NONE',  ( 1200.000000000000000, 1000.000000000000000, 16.76000000000000156 ) ) ;
#125 = PRODUCT_DEFINITION_SHAPE ( 'NONE', 'NONE',  #168 ) ;
#126 = LINE ( 'NONE', #127, #192 ) ;
#127 = CARTESIAN_POINT ( 'NONE',  ( 1200.000000000000000, 0.000000000000000000, 0.000000000000000000 ) ) ;
#128 = VECTOR ( 'NONE', #129, 1000.000000000000000 ) ;
#129 = DIRECTION ( 'NONE',  ( 0.000000000000000000, 1.000000000000000000, 0.000000000000000000 ) ) ;
#130 = ORIENTED_EDGE ( 'NONE', *, *, #157, .T. ) ;
#131 = DIRECTION ( 'NONE',  ( -0.000000000000000000, -1.000000000000000000, -0.000000000000000000 ) ) ;
#132 = VECTOR ( 'NONE', #113, 1000.000000000000000 ) ;
#133 = ORIENTED_EDGE ( 'NONE', *, *, #12, .T. ) ;
#134 = FILL_AREA_STYLE_COLOUR ( '', #170 ) ;
#135 = VECTOR ( 'NONE', #64, 1000.000000000000000 ) ;
#136 = PLANE ( 'NONE',  #111 ) ;
#137 = LINE ( 'NONE', #76, #52 ) ;
#138 = CARTESIAN_POINT ( 'NONE',  ( 0.000000000000000000, 0.000000000000000000, 16.76000000000000156 ) ) ;
#139 = SURFACE_STYLE_USAGE ( .BOTH. , #79 ) ;
#140 = PRODUCT_CONTEXT ( 'NONE', #61, 'mechanical' ) ;
#141 = APPLICATION_PROTOCOL_DEFINITION ( 'draft international standard', 'automotive_design', 1998, #61 ) ;
#142 = PRESENTATION_LAYER_ASSIGNMENT (  '', '', ( #36 ) ) ;
#143 = ADVANCED_FACE ( 'NONE', ( #31 ), #29, .T. ) ;
#144 = DIRECTION ( 'NONE',  ( -1.000000000000000000, 0.000000000000000000, -0.000000000000000000 ) ) ;
#145 = ORIENTED_EDGE ( 'NONE', *, *, #104, .F. ) ;
#146 = LINE ( 'NONE', #160, #68 ) ;
#147 = VERTEX_POINT ( 'NONE', #177 ) ;
#148 = ORIENTED_EDGE ( 'NONE', *, *, #81, .F. ) ;
#149 = CARTESIAN_POINT ( 'NONE',  ( 0.000000000000000000, 0.000000000000000000, 0.000000000000000000 ) ) ;
#150 = AXIS2_PLACEMENT_3D ( 'NONE', #48, #117, #102 ) ;
#151 = FACE_OUTER_BOUND ( 'NONE', #84, .T. ) ;
#152 = FILL_AREA_STYLE_COLOUR ( '', #14 ) ;
#153 = LINE ( 'NONE', #62, #83 ) ;
#154 = CARTESIAN_POINT ( 'NONE',  ( 1200.000000000000000, 0.000000000000000000, 16.76000000000000156 ) ) ;
#155 = CARTESIAN_POINT ( 'NONE',  ( 1200.000000000000000, 1000.000000000000000, 16.76000000000000156 ) ) ;
#156 = AXIS2_PLACEMENT_3D ( 'NONE', #154, #7, #189 ) ;
#157 = EDGE_CURVE ( 'NONE', #115, #80, #180, .T. ) ;
#158 =( NAMED_UNIT ( * ) SI_UNIT ( $, .STERADIAN. ) SOLID_ANGLE_UNIT ( ) );
#159 = EDGE_LOOP ( 'NONE', ( #164, #198, #172, #72 ) ) ;
#160 = CARTESIAN_POINT ( 'NONE',  ( 0.000000000000000000, 0.000000000000000000, 0.000000000000000000 ) ) ;
#161 = ORIENTED_EDGE ( 'NONE', *, *, #200, .F. ) ;
#162 = CARTESIAN_POINT ( 'NONE',  ( 1200.000000000000000, 0.000000000000000000, 16.76000000000000156 ) ) ;
#163 = PRODUCT_DEFINITION_FORMATION_WITH_SPECIFIED_SOURCE ( 'LIBOVOLNÝ', '', #18, .NOT_KNOWN. ) ;
#164 = ORIENTED_EDGE ( 'NONE', *, *, #95, .T. ) ;
#165 = PRESENTATION_STYLE_ASSIGNMENT (( #118 ) ) ;
#166 = ADVANCED_BREP_SHAPE_REPRESENTATION ( 'GS_16c76-120x100-VSG_ESG', ( #34, #150 ), #182 ) ;
#167 = SURFACE_SIDE_STYLE ('',( #19 ) ) ;
#168 = PRODUCT_DEFINITION ( 'NEZNÁMÝ', '', #163, #33 ) ;
#169 =( NAMED_UNIT ( * ) SI_UNIT ( $, .STERADIAN. ) SOLID_ANGLE_UNIT ( ) );
#170 = COLOUR_RGB ( '',0.7529411764705882248, 0.7529411764705882248, 0.7529411764705882248 ) ;
#171 = DIRECTION ( 'NONE',  ( -0.000000000000000000, -0.000000000000000000, -1.000000000000000000 ) ) ;
#172 = ORIENTED_EDGE ( 'NONE', *, *, #104, .T. ) ;
#173 = EDGE_CURVE ( 'NONE', #80, #194, #70, .T. ) ;
#174 = DIRECTION ( 'NONE',  ( 0.000000000000000000, -1.000000000000000000, 0.000000000000000000 ) ) ;
#175 = VECTOR ( 'NONE', #92, 1000.000000000000000 ) ;
#176 = VERTEX_POINT ( 'NONE', #197 ) ;
#177 = CARTESIAN_POINT ( 'NONE',  ( 0.000000000000000000, 0.000000000000000000, 16.76000000000000156 ) ) ;
#178 = ADVANCED_FACE ( 'NONE', ( #57 ), #46, .F. ) ;
#179 = EDGE_LOOP ( 'NONE', ( #112, #15, #161, #100 ) ) ;
#180 = LINE ( 'NONE', #43, #55 ) ;
#181 = VERTEX_POINT ( 'NONE', #155 ) ;
#182 =( GEOMETRIC_REPRESENTATION_CONTEXT ( 3 ) GLOBAL_UNCERTAINTY_ASSIGNED_CONTEXT ( ( #185 ) ) GLOBAL_UNIT_ASSIGNED_CONTEXT ( ( #65, #190, #158 ) ) REPRESENTATION_CONTEXT ( 'NONE', 'WORKASPACE' ) );
#183 = SHAPE_DEFINITION_REPRESENTATION ( #125, #166 ) ;
#184 = ADVANCED_FACE ( 'NONE', ( #66 ), #10, .F. ) ;
#185 = UNCERTAINTY_MEASURE_WITH_UNIT (LENGTH_MEASURE( 1.000000000000000082E-05 ), #65, 'distance_accuracy_value', 'NONE');
#186 = DIRECTION ( 'NONE',  ( -0.000000000000000000, -1.000000000000000000, -0.000000000000000000 ) ) ;
#187 = FILL_AREA_STYLE ('',( #152 ) ) ;
#188 = PRODUCT_RELATED_PRODUCT_CATEGORY ( 'part', '', ( #18 ) ) ;
#189 = DIRECTION ( 'NONE',  ( 0.000000000000000000, 0.000000000000000000, 1.000000000000000000 ) ) ;
#190 =( NAMED_UNIT ( * ) PLANE_ANGLE_UNIT ( ) SI_UNIT ( $, .RADIAN. ) );
#191 = CARTESIAN_POINT ( 'NONE',  ( 0.000000000000000000, 0.000000000000000000, 16.76000000000000156 ) ) ;
#192 = VECTOR ( 'NONE', #8, 1000.000000000000000 ) ;
#193 = CLOSED_SHELL ( 'NONE', ( #94, #178, #2, #184, #101, #143 ) ) ;
#194 = VERTEX_POINT ( 'NONE', #40 ) ;
#195 = DIRECTION ( 'NONE',  ( 0.000000000000000000, 0.000000000000000000, -1.000000000000000000 ) ) ;
#196 = EDGE_LOOP ( 'NONE', ( #130, #30, #53, #47 ) ) ;
#197 = CARTESIAN_POINT ( 'NONE',  ( 1200.000000000000000, 0.000000000000000000, 0.000000000000000000 ) ) ;
#198 = ORIENTED_EDGE ( 'NONE', *, *, #81, .T. ) ;
#199 = ORIENTED_EDGE ( 'NONE', *, *, #22, .F. ) ;
#200 = EDGE_CURVE ( 'NONE', #176, #115, #126, .T. ) ;
#201 = MECHANICAL_DESIGN_GEOMETRIC_PRESENTATION_REPRESENTATION (  '', ( #36 ), #107 ) ;
#202 = FILL_AREA_STYLE ('',( #134 ) ) ;
ENDSEC;
END-ISO-10303-21;
